Oops, an error
Loading. Please wait.

Appena Prima Di Partire album bass

version 1
version 1

Album

Whole song

393 views 1 this week
no commentswrite comment
1 2 3 4 5
3 more votes to show rating
add to favorites
×
Save as Personal and add changes to this tab that will be seen only by you. Learn more ›
×
You can save this tab as Personal to edit and correct it or add notes. All changes will be seen only by you. Learn more »
launch autoscroll
font size
0
reset
guitar tuner
edit
Autoscroll
slow
fast
+/-
esc
set tempo
stop
Author
++++++++++++++++++++++++++++++++++++++++++
| Zero Assoluto- Appena Prima Di Partire |
++++++++++++++++++++++++++++++++++++++++++



Bass Tab
Album: "Appena Prima Di Partire" -- 2007


A great album by a great Italian duo
even though the songs are relaxing and slow
the bass is pretty good on some tracks
and the lyrics are so pretty
enjoy!!
and please rate!


RaiLeff

_________________________________________________

Tuning: Standard EADG 


Keys:

| x: Mute
| ~: Let Ring
| /: Slide Up
| \: Slide Down
| h: Hammer On
| p: Pull Off


Tracks:

1. Ora Che Ci Sei
2. Appena Prima Di Partire
3. Meglio Cosi
4. Sei Parte Di Me
5. Quello Che Mi Davi Tu
6. Svegliarsi La Mattina
7. Certe Cose Non Cambiano 
8. Non Voltarti Mai
9. Scappare
10. Seduto Qua
11. Semplicemente

_______________________________________________________

1.

+++++++++++++++++++++++++++++++++
| Zero Assoluto- Ora Che Ci Sei |
+++++++++++++++++++++++++++++++++


"Questa notte scorderà la verità..."

Tuning: Standard EADG


Verse
"E come sempre..."
1.
G|---4~------2~------7~------9~------4~------2~------7~------9~----|
D|-2-------0-----------------------2-------0-----------------------|
A|-----------------------------------------------------------------|--x3
E|-----------------7-------8-----------------------7-------8-------|

Chorus
"Fidati di me..."
2.
G|-------------------------------------------------|
D|-------------------------------------------------|
A|-0~----2~----3~----5~----0~----2~----3~----5~----|
E|-------------------------------------------------|

Outro
3.
G|-----9~--------7~--------7~----------9~----|
D|---9---------7---------9----------10-------|
A|-7---------5---------9---------10----------|--x2
E|-------------------------------------------|

Verse
"Sono uno di quelli..."
4.
G|-----9~--------7~--------7~----------9~----|
D|---9---------7---------9----------10-------|
A|-7---------5---------9---------10----------|--x2
E|-------------------------------------------|

Chorus
"Ora che ci sei..."
5.
G|-------4~----5~----7~----------4~----5~----7~----|
D|-7~----------------------7~----------------------|
A|-------------------------------------------------|
E|-------------------------------------------------|

Outro
6.
G|-----9~--------7~--------7~----------9~----|
D|---9---------7---------9----------10-------|
A|-7---------5---------9---------10----------|--x4
E|-------------------------------------------|

7.
G|---4~------2~------7~------9~----|
D|-2-------0-----------------------|
A|---------------------------------|
E|-----------------7-------8-------|


Lyrics:


E come sempre ritorni te
Che cosa resta
Quando parli con me
E nonostante
Tutto mi dice no
Quando ti guardo 
Le risposte ce l’ho

Tante, troppe le parole che ho scritto
Tante, troppe le reazioni di getto
Quante volte ho cercato riparo
Dentro un ricordo sempre lo stesso
Ogni sera a costruire un castello
Dove chiudo tutte le tue parole
Paure, se piove
Per fermare tutto solo un momento

C’è che mi ritrovo qua
Aspettando un po’
Quello che farai
Come se
Come se la voglia di
Rimanere qui fosse solo mia 

Fidati di me
Rimaniamo qua
E questa notte scorderà la verità
E ora che ci sei 
Non andare via
E la paura si farà malinconia

Ora
Sempre
Non andare via

Sono uno di quelli che quando prova lo fa
Rischiando davvero e se la cosa non va
Va bene lo stesso
Valeva la pena di perdere 
E l’ho fatto adesso
Gioco tutto vinco o perdo

Ho capito che il momento è sempre
E non ci sono le parole
Per dirti che ci credo veramente

E ora che ci sei
Non andare via
E la paura si farà malinconia
E ora che ci sei
Cosa resterà
Se adesso prendi e scappi
Mi guardi e non mi parli
E basta coi ricordi
Ora tu

Ci sei
Che fai
Non sai
Vorrei

______________________________________________

2.

++++++++++++++++++++++++++++++++++++++++++
| Zero Assoluto- Appena Prima Di Partire |
++++++++++++++++++++++++++++++++++++++++++


"Ed era l'ultimo saluto, e non ci penso piú..."

Tuning: Standard EADG


Verse
"Da quando non mi hai piu cercato..."
1.
G|---------------------------------------9~--------|
D|-2~----------------------2-2~--------9-----------|
A|-----------2-----------2-------------------------|
E|-------------0~----------------------------------|

"Ed e bastato un solo sguardo..."
2.
G|-----------------------------------------------------------------|
D|------7~-7~-----------4~-4~-----------2~-2~-----------2~-2~------|
A|-0~-0-------00-0-------------------------------------------------|
E|-----------------2~-2-------22-2-0~-0-------00-0-0~-0-------00-0-|

"Anche se non puo piu tornare..."
3.
G|---------------------------------------------------------------------------13-11-9-|
D|------7~-7~-----------4~-4~---------22-2/44444-4/666----------------9-11-9---------|
A|-0~-0-------00-0-------------------------------------7-------7-9-11----------------|
E|-----------------2~-2-------22-2-0~--------------------9-7-9-----------------------|

Chorus
"Ma tu davvero..."
4.
G|---------------------------------------9~-9----9-8~-8---8------6~--------------|
D|------7~-77-6-66-2-22------4-444/6666-----------------9------------------6-4-2-|
A|-0~-0-----------------2~-2------------------7~------------4~-4----4-2~-2-------|--x2
E|-------------------------------------------------------------------------------|

Outro
"E ora che vuoi..."
5.
G|------------------------------------------------------|
D|------------------------------------------------------|
A|-0~---------------------7~-7~----------7~-7~----------|
E|-------------------0~-0-------00-0-0-0-------00-0-2-4-|

"Senza ormai piu chiedermi..."
6.
G|-----------------------------------------------------------------|
D|------7~-7~-----------4~-4~-----------2~-2~-----------2~-2~------|
A|-0~-0-------00-0-------------------------------------------------|
E|-----------------2~-2-------22-2-0~-0-------00-0-0~-0-------00-0-|

"Appena prima di partire..."
7.
G|-----------------------------------------------------------13-11-9-|
D|------7~-7~-----------4~-4~-------------------------9-11-9---------|
A|-0~-0-------00-0---------------------7-------7-9-11----------------|
E|-----------------2~-2-------22-2-0~----9-7-9-----------------------|

Chorus
"Ma tu davvero..."
8.
G|---------------------------------------9~-9----9-8~-8---8------6~--------------|
D|------7~-77-6-66-2-22------4-444/6666-----------------9------------------6-4-2-|
A|-0~-0-----------------2~-2------------------7~------------4~-4----4-2~-2-------|--x2
E|-------------------------------------------------------------------------------|

Outro
"E ora che vuoi..."
9.
G|-----------------------------------|
D|-----------------------------------|
A|-0~-----------------------7~-7~----|
E|-----------2~--------0~-0-------00-|

Bridge
10.
G|---------14~----14~---14-14-13-9-11~--11~-9-11~----13-14-14~-13------|
D|-9-11-14--------------------------------------------------------14~--|
A|---------------------------------------------------------------------|
E|---------------------------------------------------------------------|

11.
G|-14-13-14-13--------14-13-14-13-------------9-11~-----|
D|-------------14~----------------14-11~----9-----------|
A|------------------------------------------------------|
E|------------------------------------------------------|

Chorus
"Si tu di sicuro..."
12.
G|---------------------------------------9~-9----9-8~-8---8------6~--------------|
D|------7~-77-6-66-2-22------4-444/6666-----------------9------------------6-4-2-|
A|-0~-0-----------------2~-2------------------7~------------4~-4----4-2~-2-------|
E|-------------------------------------------------------------------------------|

Outro
"Ed era l'ultimo saluto..."
13.
G|---------------------------------------|
D|---------------------2~----------------|
A|-0~------------------------------------|
E|-----------2~--------------------------|


Lyrics:

Da quando non mi hai più cercato
Mi sembra molto più difficile
Credevo di essere più forte
Di quella sera e tutte le parole

Ed è bastato un solo sguardo
Solo una volta non lo scordi più
Rincontrarsi nei pensieri
Ritrovarsi come ieri

Anche se non può più tornare
Basta una volta e non lo scordi più
Quella sera e tutte le parole

Ma tu davvero
Non credi sia stato un piano studiato per farti del male
Si tu di sicuro
Non sei stata più sincera nel dire le cose

e ora che vuoi?
vincere tu

Senza ormai più chiedermi
Se mai ce la farò
E se domani, domani forse ritornerò
Magari un giorno poi
Poi me ne pentirò
Ma ne valeva la pena rischiare tutto o no?
Appena prima di partire
Basta una volta e non lo scordi più

Ed era l'ultimo saluto
e non ci penso più

_______________________________________________________

3.

++++++++++++++++++++++++++++++
| Zero Assoluto- Meglio Cosí |
++++++++++++++++++++++++++++++


"Ricordo ancora la cittá..."


Tuning: Standard EADG


Verse
"Sembra passato un attimo..."
1.
G|---------------------------------------------------------------------------|
D|---------------------------------------------------------------------------|
A|-2~x--------------------------------2~x-2~x--------------------------------|
E|---------------------------------------------------------------------------|

"Se ricordare é facile..."
2.
G|------------------------------------|
D|------------------------------------|
A|-2~x--------------------------------|
E|------------------------------------|

Pre-Chorus
"Non si puó toccare..."
3.
G|-------------------------------------------|
D|-------------------------------------------|
A|----------------4/9~\4---------------------|
E|--------------------------------------12\0-|

Chorus
"Dove sta la felicitá..."
4.
G|-----------------------------------------------------------------------------------------|
D|--------------------------------------------------------4~--4~--4~-6~--6~--6~-2~--2~--2~-|
A|-2~--2~--2~----------------------------------2~--2~--2~----------------------------------|
E|------------2~--2~--2~-4~--4~--4~-0~--0~--0~---------------------------------------------|

"Ci pensi mai?"
5.
G|-----------------------------------------------------------------------------------------|
D|-----------------------------------------------------------------------------------------|
A|-2~--2~--2~----------------------------------2~--2~--2~----------------------------------|
E|------------2~--2~--2~-4~--4~--4~-0~--0~--0~------------2~--2~--2~-4~--4~--4~-0~--0~--0~-|

Pre-Chorus
"Ho voglia di restare qui con te..."
6.
G|---------------------|
D|---------------------|
A|---------------------|
E|----------------12\0-|

Bridge
7.
G|-9-8-------8-8-8-8-6-6-9~----6-6-6-6-8-6-------8-8-8-8-9-8-------9-9-9-|
D|-----9~----------------------------------9~----------------9~----------|
A|-----------------------------------------------------------------------|
E|-----------------------------------------------------------------------|

8.
G|-9-8-------8-8-8-8-6-6-------6-6-6-6-8~--------8-8-8-8-9-9---9---9---|
D|-----9~----------------9~----------------9~----------------9---9---9-|
A|---------------------------------------------------------------------|
E|---------------------------------------------------------------------|

Chorus
"Ci pensi mai?"
9.
G|-9-8-------8-8-8-8-6-6-9~----6-6-6-6-8-6-------8-8-8-8-9-8-------9-9-9-|
D|-----9~----------------------------------9~----------------9~----------|
A|-----------------------------------------------------------------------|
E|-----------------------------------------------------------------------|

"E tutto era li..."
10.
G|-9-8-------8-8-8-8-6-6-------6-6-6-6-8~------------------------------|
D|-----9~----------------9~----------------9~--------------------------|
A|---------------------------------------------------------------------|
E|---------------------------------------------------------------------|

Lyrics:

Allora come stai, io me la cavo bene
Sembra passato un attimo, ora che siamo insieme
E non ci penso mai mai mai a
Come sarebbe stato, se ricordare è facile
Vorrei saper restare e dirti ho voglia di te

Non vedi che stai bene pure te, ho voglia di restare qui con te
Qualcosa c’è, ma è difficile
Non si può toccare, ma vivere

Dove sta, la felicità
Adesso non puoi, o forse non vuoi
Ritrovare la complicità e, il nostro dolce fare niente
La convinzione di viverci per sempre, quella voglia e il calore che ci unisce
Tra una canzone e una giornata che finisce, dimmi che

Ci pensi mai
Io e te a dormire
Ricordo ancora la città
E tutto era li, e ci sentivamo unici
E adesso cosa ci resta, se ricordare non basta
Non vedi che stai bene pure te
ho voglia di restare qui con te

E adesso cosa ci resta, se tutto questo non basta

________________________________________________________________________________

4.

++++++++++++++++++++++++++++++++++
| Zero Assoluto- Sei Parte Di Me |
++++++++++++++++++++++++++++++++++


"Mi prendo un ricordo che tengo nascosto lontano dal tempo..."

Tuning: EADG


Intro
1.
G|-----------2-4---------------4-2~----------------5~--------|
D|-2~------------2~--------2-2-------------2-2-2-3-----------|
A|-----------------------------------------------------------|
E|-----------------------------------------------------------|

Verse
"No, sto pensando che..."
2.
G|------------------------------------------|
D|------------------------------------------|
A|-3~--------0~-----------------------------|--x2
E|---------------------0~-------0-1~--------|

Chorus
"E per ogni giorno mi prendo un ricordo..."
3.
G|-------------------------------------------|
D|-------------------------------------------|
A|-3~------------------0~--------------------|--x2
E|-----------1~--------------3~----1~--------|

Outro
"Sei parte di me..."
4.
G|---------------------|
D|---------------------|
A|-3~------------------|
E|-----------0~--------|

Verse
"In macchina non tornano..."
5.
G|---------------------------------------------------------------|
D|-------------------------------0~------------------0~----------|
A|-3~------------------------------------------------------------|
E|-----------0~--------1~------------------1~--------------3~----|

Chorus
"E per ogni giorno mi prendo un ricordo..."
6.
G|-------------------------------------------|
D|-------------------------------------------|
A|-3~------------------0~--------------------|--x2
E|-----------1~--------------3~----1~--------|

Outro
"Sei parte di me..."
7.
G|-----------------------------------------|
D|-----------------------------------------|
A|-3~------------------3~------------------|
E|-----------0~------------------0~--------|

Bridge
8.
G|-----------------------------------------|
D|-----------------------------------------|
A|-3~--------0~----------------------------|
E|---------------------0~--------1~--------|

Chorus
"E se ti fermassi soltanto un momento..."
9.
G|-------------------------------------------|
D|-------------------------------------------|
A|-3~------------------0~--------------------|
E|-----------1~--------------3~----1~--------|

Outro
"Sei parte di me..."
10.
G|-------------------------------------------|
D|-------------------------------------------|
A|-3~------------------0~--------------------|
E|-----------1~--------------3~----1~--------|

"Lo tengo per me..."
11.
G|-----------------------------------------|
D|-----------------------------------------|
A|-3~------------------3~------------------|
E|-----------0~------------------0~--------|



Lyrics:


No, sto pensando che
Non ritornano, sto pensando che
Che se poi ci riprovo
Lo so che non è più lo stesso

Me lo chiedo da un po’
Quei momenti con te
Se ritornano le parole con te
se ne vale la pena oppure vorrei più fortuna

E per ogni giorno mi prendo un ricordo 
Che tengo nascosto lontano dal tempo
Insieme agli sguardi veloci momenti 
Che tengo per me

E se ti fermassi soltanto un momento
Potresti capire davvero che e questo 
Che cerco di dirti da circa una vita
Lo tengo per me

Sei parte di me
E lo porto con me
Lo nascondo per me

In macchina non tornano 
Chilometri che scorrono
Discorsi che ti cambiano
E immagini che passano
E restano qua

Se ho bisogno lo so
Di sentire che dentro c’è
Voglia di ridere
Qualche cosa in cui credere

___________________________________________________

5.

++++++++++++++++++++++++++++++++++++++++
| Zero Assoluto- Quello Che Mi Davi Tu |
++++++++++++++++++++++++++++++++++++++++

Tuning: EADG

Verso
"Sai, giusto ieri ti ho vista..."
1.
G|-------------------------------------------------------------------------|
D|-00000000-00000000-22222222-22222222-------------------------------------|
A|-------------------------------------22222222-22222222-00000000-00000000-|
E|-------------------------------------------------------------------------|

"Quanti ricordi mi son tornati in mente..."
2.
G|-------------------------------------------------------------------------|
D|-00000000-00000000-22222222-22222222-------------------------------------|
A|-------------------------------------22222222-22222222-------------------|
E|-------------------------------------------------------33333333-33333333-|

"Guardando i tuoi capelli..."
3.
G|-------------------------------------------------------------------------|
D|-00000000-00000000-22222222-22222222-------------------------------------|
A|-------------------------------------22222222-22222222-00000000-00000000-|
E|-------------------------------------------------------------------------|

Pre-Chorus
"Non pensavo che bastasse cosí poco..."
4.
G|----------------------------------------------------------------------------2222-|
D|-0~--------------------------------------0~--------------------------------------|
A|---------------------2~--------0~----------------------------2~--------0~--------|
E|-----------3~--------------------------------------3~----------------------------|

"Da tanto tempo e per paura..."
5.
G|-------------------------------------------------------------------------|
D|-00000000-00000000-------------------------------------------------------|
A|-------------------------------------22222222-22222222-00000000-00000000-|--x2
E|-------------------33333333-33333333-------------------------------------|

Chorus
"Quello che mi davi tu, che avevi tu..."
6.
G|--------------------------------------------------------------|
D|--------------------------------------------------------------|
A|--------------------------------------------------------------|
E|--------------------------------------------------------------|

Verso
"é stato eterno, senza fiato..."
7.
G|----------------------------------------------------------------22222222-|
D|-00000000-00000000-22222222-22222222-------------------------------------|
A|-------------------------------------22222222-22222222-00000000----------|--x4
E|-------------------------------------------------------------------------|

Pre-Chorus
"Non pensavo che bastasse cosí poco..."
8.
G|----------------------------------------------------------------22222222-|
D|-00000000-00000000-------------------------------------------------------|
A|-------------------------------------22222222-22222222-00000000----------|--x4
E|-------------------33333333-33333333-------------------------------------|

Chorus
"Quello che mi davi tu, che avevi tu..."
9.
G|--------------------------------------------------------------|
D|--------------------------------------------------------------|
A|--------------------------------------------------------------|
E|--------------------------------------------------------------|

Lyrics:

Ciao
Come stai?
Tutto bene?
Mi hai pensato mai?
Sai,
giusto ieri
ti ho vista
camminavi tra i negozi

Quanti ricordi
Mi son tornati in mente
Guardando
I tuoi capelli
Non pensavo
Che bastasse cosí poco
Per ricordare
Chi cercavo di dimenticare

Da tanto tempo
e per paura
di non trovare un'altra
che mi desse

Quello che mi davi tu
che avevi tu
quello che mi davi tu
che avevi tu

É stato eterno, senza fiato
solo un momento, giusto il tempo
di sentire l'inverno che ci avvolge stanotte
che ti fa perdere il senso che a volte
sembrava molto piú intenso, molto piú bello
Molto piú forte di questo
e solo quando ritorni fermo nel tempo
trovando la forza che ho perso
Tu cosí importante
tu cosí presente, tu cosí per sempre
Che mi vesto dei miei limiti, 
tutto se n’è andato ma restano i brividi
E mi aspettavo,sai? tutto più facile, 
è che nessuno ti insegna a ricevere
Forse non serve adesso più chiedere scusa, 
lo senti questo silenzio che pesa

___________________________________________________

6.

++++++++++++++++++++++++++++++++++++++++
| Zero Assoluto- Svegliarsi La Mattina |
++++++++++++++++++++++++++++++++++++++++

Tuning: EADG

Intro
1.
G|-----------------------------------------------------------------|
D|-----------------------------------------------------------------|
A|---2-2-2-----------5-5-5-----------2-2-2-----------5-5-5---------|
E|-0-------0-3-3-3-0-------0-5-5-5-0-------0-3-3-3-0-------0-5-5-5-|

Verse
"Arriverá qualuno che si prenderá..."
2.
G|-----------------------------------------------------------------|
D|-----------------------------------------------------------------|
A|---2-2-2-----------5-5-5-----------2-2-2-----------5-5-5---------|--x2
E|-0-------0-3-3-3-0-------0-5-5-5-0-------0-3-3-3-0-------0-5-5-5-|

Pre-Chorus
"Solo con te..."
3.
G|-----------------------------------------------------------------|
D|-----------------------------------------------------------------|
A|-------------------2-2-2-2-2-2-2---------------------------------|
E|-0-3-3-3-3-3-3-3-0---------------0-3-3-3-3-3-3-3-0-2-2-2-2-5-5-5-|

Chorus
"E svegliarsi la mattina..."
4.
G|-----------------------------------------------------------------|
D|-----------------------------------------------------------------|
A|---5-5-5-----------2-2-2-----------5-5-5-----------2-2-2---------|--x2
E|-0-------0-2-2-2-0-------0-3-3-3-0-------0-2-2-2-0-------0-3-3-3-|

Verse
"Sai cosa c'é má..."
5.
G|-----------------------------------------------------------------|
D|-----------------------------------------------------------------|
A|---2-2-2-----------5-5-5-----------2-2-2-----------5-5-5---------|
E|-0-------0-3-3-3-0-------0-5-5-5-0-------0-3-3-3-0-------0-5-5-5-|

"Lo voglio fare davvero basta un attimo..."
6.
G|-----------------------------------------------------------------|
D|-----------------------------------------------------------------|
A|---2-2-2-----------5-5-5-----------2-2-2-------------------------|
E|-0-------0-3-3-3-0-------0-5-5-5-0-------0-3-3-3-0-----------0-5-|

Pre-Chorus
"Solo con te..."
7.
G|-----------------------------------------------------------------|
D|-----------------------------------------------------------------|
A|-------------------2-2-2-2-2-2-2---------------------------------|
E|-0-3-3-3-3-3-3-3-0---------------0-3-3-3-3-3-3-3-0-2-2-2-2-5-5-5-|

Chorus
"E svegliarsi la mattina..."
8.
G|-----------------------------------------------------------------|
D|-----------------------------------------------------------------|
A|---5-5-5-----------2-2-2-----------5-5-5-----------2-2-2---------|--x2
E|-0-------0-2-2-2-0-------0-3-3-3-0-------0-2-2-2-0-------0-3-3-3-|

Outro
9.
G|-----------------------------------------------------------------|
D|-----------------------------------------------------------------|
A|---2-2-2-2-2-2-2-------------------2-2-2-2-2-2-2-2---------------|
E|-0---------------0-2-2-2-2-2-2-2-0-----------------0-0-0-0-0-0-0-|

10.
G|---------------------------------|
D|---------------------------------|
A|---2-2-2-2-2-2-2-2---------------|
E|-0-----------------3~------3-3-3-|

Bridge
"Ogni giorno..."
11.
G|----------------------------------------|
D|----------------------------------------|
A|---2~-----------------------------------|
E|-0-----------0-3~-------0-2~----0-5~----|

12.
G|-----------------------------------------------------------------|
D|-----------------------------------------------------------------|
A|---5-5-5-----------2-2-2-----------5-5-5-----------2-2-2---------|--x2
E|-0-------0-2-2-2-0-------0-3-3-3-0-------0-2-2-2-0-------0-3-3-3-|

Chorus
"Svegliarsi la mattina..."
13.
G|-----------------------------------------------------------------|
D|-----------------------------------------------------------------|
A|---5-5-5-----------2-2-2-----------5-5-5-----------2-2-2---------|--x2
E|-0-------0-2-2-2-0-------0-3-3-3-0-------0-2-2-2-0-------0-3-3-3-|

Outro
14.
G|-----------------------------------------------------------------|
D|-----------------------------------------------------------------|
A|---5-5-5-0-------0-2-2-2-0---------5-5-5-0-------0-2-2-2---------|
E|-0---------2-2-2-----------3-3-3-0---------2-2-2---------0-3-3-3-|


Lyrics:


Arriverà qualcuno che si prenderà il mio posto
e allora io starò solo a guardare.
Mi metterò seduto con lo sguardo fisso su di te
perché ho imparato ad aspettare.
Sono due giorni che camminiamo tre metri sopra al cielo.
E proprio adesso che ci penso mi ricordo
quante volte non ti ho perso per un pelo ma.
Solo con te, ma tu,
non ho bisogno neanche di pensare

E svegliarsi la mattina,
con la voglia di parlare solo con te
e non è niente di speciale ma
questo mi fa stare bene, solo con te

Sai cosa c'è ma cosa ci sta quando in fondo ad una storia
nessuno sa come andrà
tu mi spiazzi, ogni volta che mi guardi, mi parli persa nei tuoi traguardi
lo voglio fare davvero basta un attimo
lo voglio fare davvero se so che ti ho
non c'è situazione che spaventa,
solo con te quella voglia che ritorna.
Solo con te, ogni giorno ti trovo nel mio mondo se stai con me,
non c'è bisogno neanche di pensare

Ogni giorno ti trovo nel mio mondo se stai con me,
non c'è bisogno neanche di pensare.

______________________________________________________________________________

7.

++++++++++++++++++++++++++++++++++++++++++
| Zero Assoluto- Certe Cose Non Cambiano |
++++++++++++++++++++++++++++++++++++++++++


"Qui dove vivi tu..."


Tuning: Standard EADG


2:05
Verse
"Le mie foto che parlano..."
1.
G|-------------------------------------------------------------|
D|-------------------------------5-5-5-4-0~--------0-----------|
A|-0-5-4-2~------2~----------------------------------0~--------|
E|-------------2-------3~--------------------------------------|


Lyrics

Resto qui, è solo la verità
Non si può nascondere la realtà
Che certe cose non cambiano,non serve poi dirselo
Le distanze non contano, i giorni allontanano
Non si dimentica, la città
Dove le cose non cambiano, e i libri raccontano
Le storie che passano

Qui qui qui, dove vivi tu
E il ricordo che ho, di quelle cose che restano
Qui qui dove vivi tu
E il ricordo che ho, di quelle cose che restano
Le cose che restano

Le mie foto che parlano
I momenti che vivono
Qui

Più leggeri nei giorni, fino a quasi confondere i sogni

Le passioni che chiamano
Come strade che portano
Qui

Qui qui dove vivi tu
E il ricordo che ho, di quelle cose che restano
Qui qui, e in un attimo
Tutto quello che ho, sono le cose che restano
Le cose che restano


________________________________________________________________________

8.

+++++++++++++++++++++++++++++++++++
| Zero Assoluto- Non Voltarti Mai |
+++++++++++++++++++++++++++++++++++


"Io non ti cercherei..."


Tuning: Standard EADG

00:56
Chorus
"Non so se stare..."
1.
G|-------6~----------6~----------6~----------6~----|
D|-4~--4-------4~--4-------4~--4-------4~--4-------|
A|-------------------------------------------------|--x2
E|-------------------------------------------------|

1:36
Chorus
"Non so se stare..."
2.
G|-------6~----------6~----------6~----------6~----|
D|-4~--4-------4~--4-------4~--4-------4~--4-------|
A|-------------------------------------------------|
E|-------------------------------------------------|

"Che posso fare..."
3.
G|-------6~----------------------------------6~----|
D|-4~--4-------------6~----------4~----4~--4-------|
A|-------------4~--4-------2~--2-------------------|
E|-----------------------------------0-------------|

2:21
Bridge
4.
G|-------------------------------------------------|
D|-------------------------------------------------|
A|-2~----5~----2~----0~----2~----5~----2~----0~----|
E|-------------------------------------------------|

"Se tu tornassi indietro..."
5.
G|-------------------------------------------------|
D|-------------------------------------------------|
A|-2~----5~----2~----0~----2~----5~----2~----0~----|--x2
E|-------------------------------------------------|

Outro
6.
G|-------------------------------------------------|
D|-------------------------------------------------|
A|-2~----5~----2~----0~----2~----5~----2~----0~----|--Play until song fades...
E|-------------------------------------------------|


Lyrics:

E la storia di te che scrivi te, delle cose che fai che vivi te
Ogni cosa che vuoi provare poi, tentare devi rischiare per forza e crederci
È la storia di lei, che scrivi te
Delle cose che fa, solo con te
C’è una luna che splende del tuo riflesso, pretende successo
Prende senza dare e chiedere

Non so se stare, se continuare
Sono stato a guardare per troppo tempo te, ho bisogno di pensare solamente a me
Che posso fare, lasciarmi andare
Sono stato a guardare per troppo tempo te, ho bisogno di pensare solamente a me

Pensa bene che vuoi e dimmelo
Trova quello che sei e buttati
Forse non c’è la fai ma c’hai provato
Basta un gesto e tutto il resto non conta più di riflesso, corri fuori da qui
E vattene, aspettavi qualcosa
Che adesso c’è, non ti darà mai quello che speri
Ma solo pensieri su pensieri su pensieri su pensieri

Non voltarti mai lo sai che ritornerà
Non voltarti mai, ritornerà
Mai ritornerà
Tu corri senza mai guardarti perchè ritornerà

Corri non voltarti mai lo sai che ritornerà
Non voltarti mai ritornerà
Mai ritornerà
Tu corri senza mai guardarti perché ritornerà

Se tu tornassi indietro non troveresti più
Quella persona che ti ha amato ed aspettato sempre, se tu tornassi indietro
E ci tornassi anche io, io non ti aspetterei
Io non ti cercherei

_________________________________________________________________________________

9.

+++++++++++++++++++++++++++
| Zero Assoluto- Scappare | 
+++++++++++++++++++++++++++ 


"Tanto ritorno perche il mio posto é qua..."

Tuning: Standard EADG


Verse
"Ci sta un momento..."
1.
G|-----------------------------------------------|
D|-----------------------------------------------|
A|-5~---------5~----------5~---------5~----------|
E|-----3~---2------5~--55-----3~---2------5~--55-|

"Spero sempre..."
2.
G|-----------------------------------------------|
D|-----------------------------------------------|
A|-5~---------5~----------2~---------5~----------|
E|-----3~---2------5~--55-----3~---2------5~--55-|

Chorus
"Scappare..."
3.
G|-----------------------------------------------|
D|-----------------------------------------------|
A|-5~---------5~----------5~---------5~----------|
E|-----3~---2------5~--55-----3~---2------5~--55-|

"Tempo di pensare..."
4.
G|-----------------------------------------------|
D|-----------------------------------------------|
A|-5~---------5~----------2~---------5~----------|
E|-----3~---2------5~--55-----3~---2------5~--55-|

Outro
"Tu non sai..."
5.
G|--------------------------------------------|
D|--------------------------------------------|
A|-22~-------------------22~--------0~--------|
E|------------22~-----------------------------|

Verse
"Oggi so che é solo un momento..."
6.
G|-----------------------------------------------|
D|-----------------------------------------------|
A|-5~---------5~----------2~---------5~----------|
E|-----3~---2------5~--55-----3~---2------5~--55-|

Chorus
"Scappare..."
7.
G|-----------------------------------------------|
D|-----------------------------------------------|
A|-5~---------5~----------5~---------5~----------|
E|-----3~---2------5~--55-----3~---2------5~--55-|

"Tempo di pensare..."
8.
G|-----------------------------------------------|
D|-----------------------------------------------|
A|-5~---------5~----------2~---------5~----------|
E|-----3~---2------5~--55-----3~---2------5~--55-|

Outro
9.
G|--------------------------------------------|
D|--------------------------------------------|
A|-22~-------------------22~--------0~--------|
E|------------22~-----------------------------|

Chorus
"Scappare..."
10.
G|-----------------------------------------------|
D|-----------------------------------------------|
A|-5~---------5~----------5~---------5~----------|
E|-----3~---2------5~--55-----3~---2------5~--55-|

"Tempo di pensare..."
11.
G|-----------------------------------------------|
D|-----------------------------------------------|
A|-5~---------5~----------2~---------5~----------|
E|-----3~---2------5~--55-----3~---2------5~--55-|

Outro
"Fino a domani..."
12.
G|-----------------------------------------------|
D|-----------------------------------------------|
A|-5~---------5~----------5~---------5~----------|
E|-----3~---2------5~--55-----3~---2------5~--55-|

13.
G|-----------------------------------------------|
D|-----------------------------------------------|
A|-5~---------5~----------2~---------5~----------|
E|-----3~---2------5~--55-----3~---2------5~--55-|

14.
G|----|
D|----|
A|-5x-|
E|----|

Bravo

Lyrics:

É troppo tempo che sto sempre a parlare
E sento che mi perdo dietro ad un miraggio
E sono stanco di riuscire a trovare
Giustificazioni per quello che faccio
E se ti perdo anche solo un istante
E’ tutto inutile il senso lo dai tu a questa storia
E se ti guardo negli occhi non mi trovi più

Ci sta un momento in cui perdo di vista
Tutti gli obbiettivi e casco giù
Non voglio niente solo un po’ di silenzio
Perdermi nel tempo che non c’è più
E spero sempre che tu riesca a capirmi
E questa notte c’ho bisogno di tenerti la mano
E se mi lasci non mi trovi più

Scappare senza dire niente piuttosto pensa male di me
Ho voglia solo di andare via ma non è il caso
Che adesso te la prendi con me
Il tempo di pensare tanto ritorno perché il mio posto è qua
Un giorno per scappare, tutto mi torna
E mi nascondo fino a domani

Tu non sai il tempo che ci penso

Oggi che non so che fare
Libero pure di non pensare a come stare
Oggi che mi svuoto la testa
Lascio i miei pensieri di ieri niente fretta
Oggi so che è solo un momento
Giusto un po’ prendo fiato e poi scendo
Oggi puoi basta che vuoi
Fuori dal mondo questa sera siamo noi

Ho bisogno di fermare non mi rincorrere
E se hai bisogno di capire non lo pretendere
e stasera non insistere
Questa volta non mi va

______________________________________________________________

10.

+++++++++++++++++++++++++++++
| Zero Assoluto- Seduto Qua |
+++++++++++++++++++++++++++++

Tuning: EADG

Intro
1.
G|-4-7-------------------------4~--4-4~--4-4~--4-4-|
D|-----5~--5-5~--5-2~--2-2~--2---------------------|
A|-------------------------------------------------|
E|-------------------------------------------------|

2.
G|-7/11-9-7~------7-9~----11-7~--------7/11-9-7~------7-9~----11-7~----|
D|--------------9-----------------------------------9------------------|
A|---------------------------------------------------------------------|
E|---------------------------------------------------------------------|

3.
G|---------------------------------|
D|-9p7h9~----9p7h9~----9-7-4-2~----|
A|---------------------------------|
E|---------------------------------|

Verse
"Sono giornate lunghe quando non vuoi uscire..."
4.
G|-------------------------------------------------|
D|-------------------------------------------------|
A|-------------------------2~--2-2~--2-2~--2-2~--2-|--x2
E|-3~--3-3~--3-0~--0-0~--0-------------------------|

Chorus
"Come ieri come sempre, attendere..."
5.
G|-7/11-9-7~------7-9~----11-7~--------7/11-9-7~------7-9~----11-7~----|
D|--------------9-----------------------------------9------------------|
A|---------------------------------------------------------------------|--x2
E|---------------------------------------------------------------------|

Outro
6.
G|-----------7/11~-9-7-9-7-----|
D|-9p7h9~------------------9-7-|
A|-----------------------------|
E|-----------------------------|

Verse
"C’è qualcuno che mi sente..."
7.
G|-------------------------------------------------|
D|-------------------------------------------------|
A|-------------------------2~--2-2~--2-2~--2-2~--2-|--x2
E|-3~--3-3~--3-0~--0-0~--0-------------------------|

Chorus
"Come ieri come sempre, attendere..."
8.
G|-7/11-9-7~------7-9~----11-7~--------7/11-9-7~------7-9~----11-7~----|
D|--------------9-----------------------------------9------------------|
A|---------------------------------------------------------------------|
E|---------------------------------------------------------------------|

9.
G|---------------------------------|
D|-9p7h9~----9p7h9~----9-7-4-2~----|
A|---------------------------------|
E|---------------------------------|

"Non posso stare, fermo e il tempo che se ne va..."
10.
G|-7/11-9-7~------7-9~----11-7~--------7/11-9-7~------7-9~----11-7~----|
D|--------------9-----------------------------------9------------------|
A|---------------------------------------------------------------------|--x2
E|---------------------------------------------------------------------|

Outro
11.
G|-7/11~-9-7-9-7-------|
D|---------------9-7-9-|
A|---------------------|
E|---------------------|

Bridge
"Non ti posso cercare piú, non ti posso trovare qui..."
12.
G|-4-7-------------------------4~--4-4~--4-4~--4-4-|
D|-----5~--5-5~--5-2~--2-2~--2---------------------|
A|-------------------------------------------------|--x2
E|-------------------------------------------------|

"Non ti posso cercare piú, non ti posso trovare qui..."
13.
G|-4-7-----------------------7-9-4~--4-4~--4-4~--4-4-|
D|-----5~--5-5~--5-2~--2-2-9-------------------------|
A|---------------------------------------------------|--x2
E|---------------------------------------------------|

Outro
14.
G|-7/11-9-7~------7-9~----11-7~--------7/11-9-7~------7-9~----11-7~----|
D|--------------9-----------------------------------9------------------|
A|---------------------------------------------------------------------|
E|---------------------------------------------------------------------|

15.
G|---------------------------------|
D|-9p7h9~----9p7h9~----9-7-4-2-----|
A|---------------------------------|
E|---------------------------------|

16.
G|-7/11-9-7~------7-9~----11-7~--------7/11-9-7~------7-9~----11-7~----|
D|--------------9-----------------------------------9------------------|
A|---------------------------------------------------------------------|
E|---------------------------------------------------------------------|

17.
G|------------------------------------|
D|-9p7h9~----9p7h9~----9-7-4-2~-0~----|
A|---------------------------------2x-|
E|------------------------------------|

Lyrics:

Sono giornate lunghe quando non vuoi uscire
Quando il cielo è buio e strano e non ti fa capire, quante cose devo ancora fare
Quante facce e quante strade ancora da vedere, se ti potessi solo raccontare
Quante sono le paure che non so scoprire, quelle vite che viste da qua
Mi descrivono la verità

Come ieri come sempre, attendere
Anche adesso come ieri, a scegliere
Non posso stare fermo e il tempo
Che se ne va, non posso stare
Per sempre seduto qua

C’è qualcuno che mi sente, eh, tutto quello che mi prende, eh,
È scomparso in un istante e mi serve per ridiventare grande eh,
Quante volte m’è l’hai detto, ogni sera che mi cerco nel riflesso
Si può con te
Ora lo so

Non ti posso cercare più, non ti posso trovare qui

_________________________________________________________________________________

11.

++++++++++++++++++++++++++++++++
| Zero Assoluto- Semplicemente |
++++++++++++++++++++++++++++++++


"Dormire senza voglia di alzarmi..."

Tuning: EADG


Verse
"Ora che mi sento bene..."
1.
G|---------------------------------------------------------|
D|---------------------------------------------------------|
A|---------------0~--0-0~--0-------------------------------|
E|-3~--3-3~--3-3-------------3-2~--2-2~--2-2-3~--3-3~--3-3-|

"Spero di riuscire a dimostrare..."
2.
G|---------------------------------------------------------|
D|--2h4~--2h4~---------------------------------------------|
A|---------------0~--0-0~--0-------------------------------|
E|---------------------------3-2~--2-2~--2-2-3~--3-3~--3-2-|

"Ora che ci penso mi perdo in quell'attimo..."
3.
G|---------------------2~----------------------------------|
D|-------2~------------------------------------------------|
A|---------------0~--0-----0-------------------------------|
E|-0~--0-----0-0-------------3-2~--2-2~--2-2-3~--3-3~--3-3-|

"E ora che é successo fa lo stesso..."
4.
G|---------------------2~--------------------------------7-|
D|-----------------------------------------------------7---|
A|---------------0~--0-----0-------------------------------|
E|-3~--3-3~--3-3-------------3-2~--2-2~--2-2-3~--3-3~------|

Pre-Chorus
"Buona notte a te, buona notte a me..."
5.
G|---------------------------------------------------------|
D|-------2~------------------------------------------------|
A|-------------------------------------------0~--0-0~--0-0-|--x2
E|-0~--0-----0-0-2~--2-2~--2-2-3~--3-3~--3-3---------------|

Chorus
"Semplicemente, semplicemente..."
6.
G|-------------------------------------------------------7-|
D|--2h4~--2h4~---------2~--------------------0~--0-0~--7---|
A|---------------------------------------------------------|
E|---------------0~--0-----0-0-3~--3-3~--3-3---------------|

"Semplicemente, semplicemente..."
7.
G|-------------------------------------------------------7-|
D|---------------------2~--------------------0~--0-0~--7---|
A|-2~--2-2~--2-2-------------------------------------------|
E|---------------0~--0-----0-0-3~--3-3~--3-3---------------|

Verse
"La voglia di non ragionare, ma vivere..."
8.
G|---------------------------------------------------------|
D|-------------------------------------------0~--0~--------|
A|-2~------------0~----------------------------------4--5~-|--x2
E|-----------------------------3~--------------------------|

"Come i libri della scuola fra le dita..."
9.
G|---------------------------------------------------------|
D|--2h4~-------------------------------------0~--0~--------|
A|---------------0~----------------------------------4--5~-|
E|-----------------------------3~--------------------------|

"Poteva andare meglio, puó darsi..."
10.
G|---------------------------------------------------------|
D|-------------------------------------------0~--0~--------|
A|-2~------------0~--------------------------------------5-|
E|-----------------------------3~----------------------5---|

Pre-Chorus
"Se ci penso ora, se ci penso adesso..."
11.
G|---------------------------------------------------------|
D|---------------------------------------------------------|
A|-------------------------------------------0~------------|
E|-0~------------2~------------3~----------3-------------2-|

"Perchè mi manca il fiato..."
12.
G|---------------------------------------------------------|
D|---------------------------------------------------------|
A|-------------------------------------------0~------------|
E|-0~----------0-2~------------3~----------3---------------|

"Semplicemente..."
13.
G|---------------------------------------------------------|
D|-------------------------------------------0~--0~--------|
A|-2~----------------------------------------------------5-|--x2
E|---------------0~----------0-3~----------------------5---|

Chorus
"Buona notte a te, buona notte a me..."
14.
G|---------------------------------------------------------|
D|---------------------2~--------------------0~--0-0~------|
A|-2~--2-2~--2-2-----------------------------------------5-|--x2
E|---------------0~--0-----0-0-3~--3-3~--3-3-----------5---|

"Semplicemente, semplicemente..."
15.
G|---------------------------------------------------------|
D|---------------------2~--------------------0~--0-0~------|
A|-2~--2-2~--2-2-----------------------------------------5-|--x2
E|---------------0~--0-----0-0-3~--3-3~--3-3-----------5---|

Outro
16.
G|---------------------------------------------------------------------|
D|---------------------------------------------------------------------|
A|-0----0~----5~----0----0~----5~----0----0~----5~----0----0~----5~----|
E|---------------------------------------------------------------------|


Lyrics:


Ora che mi sento bene, 
Spengo la luce
Spero di riuscire a dimostrare che
Cosí va bene

Ora che ci penso mi perdo in quell'attimo
Dove dicevo che tutto era fantastico
Mi sembra ieri
E ora che é successo fa lo stesso
Se non ti cerco non vuol dire che mi hai perso
Già sto sognando... ma adesso

Buona notte a te, buona notte a me
Buona notte a chi ancora non ho incontrato
Buona notte pure a lei, lei te dove sei
Anche oggi che ti ho cercata

Buona notte a te, buonanotte a me
Buona notte a chi ancora non ho incontrato
Buona notte pure a lei
Anche oggi che ti vorrei 

Semplicemente, semplicemente...

La voglia di non ragionare, ma vivere
Sempre disposto a rischiare e ridere
Riderne, la gioia di quest'attimo
Senza pensarci troppo, solo gustandolo

Le stesse storie e quei percorsi che non cambiano
Quelle canzoni e le passioni che rimangono
Semplicemente non scordare nananananana

Come i libri della scuola fra le dita
La colazione ogni mattina da una vita
Semplice, come incontrarsi, perdersi
Poi ritrovarsi, amarsi, lasciarsi

Poteva andare meglio puó darsi
Dormire senza voglia di alzarmi
E faccio quello che mi pare nananananana

Se ci penso ora, se ci penso adesso
Non so ancora che cosa ne sará
Perchè mi manca il fiato
Perchè ti cerco ancora
Non so dove che cosa ci sará

Semplicemente, semplicemente...


_______________________________________________________


I hope you enjoyed, please rate!!



+++++++++++++++++++++++++++++++++
| RaiLeff                       |
| Underground__Dora@Hotmail.Com |
+++++++++++++++++++++++++++++++++

            
            
Suggest correction
Creating personal tab
Creating personal tab
You can edit any tab online and save it as your Personal.

You can edit, replace or remove any tab part or add personal notes – all changes will be seen only by you.

Personal tabs can be accessed anytime from any device, even offline.
Learn more »
Give kudos to tab author, rate the tab!
1 2 3 4 5
comments
print report bad tab
guest
You may want to rate the tab now too:
select rating
Wanna post a correction for this tab? Suggest correction