Oops, an error
Loading. Please wait.

Huir tab

13 views 1 this week
no commentswrite comment
1 2 3 4 5
3 more votes to show rating
add to favorites
×
Save as Personal and add changes to this tab that will be seen only by you. Learn more ›
×
You can save this tab as Personal to edit and correct it or add notes. All changes will be seen only by you. Learn more »
launch autoscroll
font size
0
reset
how to read this tab
guitar tuner
edit
Autoscroll
slow
fast
+/-
esc
set tempo
stop
Zero Balas
Huir

[Riff]

|---------------------------------------------------------|
|---------------------------------------------------------|
|---------------------------------------------------------|
|------------------------------------------------5-7-8-8--|
|-7v-7v-7v-0-5---7v-7v-7v-0-5---7v-7v-7v-0-5---7----------|
|---------------------------------------------------------|

|---------------------------------------------------------|
|---------------------------------------------------------|
|----------------------------------------------5----------|
|----------------------------------------------5----------|
|-7v-7v-7v-0-5---7v-7v-7v-0-5---7v-7v-7v-0-5---3----------|
|---------------------------------------------------------|

A5 B5 E5
Siempre andube entre tinieblas
nunca encontraba la tranquilidad
refugiado en mi silencio
Trataba de no morir
G#5 A5                 E5
Y ya he perdido mil batallas
G#5 A5                 B5
Solo debo alejarme de aqui

A5 B5 E5
Tengo que huir de una forma
Que nadie se acuerde de mi
Quiero borrar los recuerdos
Y destruir mi memoria
Olvidar lo que vi, quien fui

[Riff]

|---------------------------------------------------------|
|---------------------------------------------------------|
|---------------------------------------------------------|
|------------------------------------------------5-7-8-8--|
|-7v-7v-7v-0-5---7v-7v-7v-0-5---7v-7v-7v-0-5---7----------|
|---------------------------------------------------------|

|---------------------------------------------------------|
|---------------------------------------------------------|
|----------------------------------------------5----------|
|----------------------------------------------5----------|
|-7v-7v-7v-0-5---7v-7v-7v-0-5---7v-7v-7v-0-5---3----------|
|---------------------------------------------------------|

A5 B5 E5
Se muy bien lo que ahora vendra
Es que un cruel camino me espera
y sin marcha atraz caminare
hasta encontrar mi lugar
G#5 A5                 E5
en la oscuridad de mi alma
G#5 A5                 B5
no quiero olvidar lo que hise mal

A5 B5 E5
Tengo que huir de una forma
Que nadie se acuerde de mi
Quiero borrar los recuerdos
Y destruir mi memoria
Olvidar lo que vi, quien fui

|---------------------------------------------------------|
|---------------------------------------------------------|
|---------------------------------------------------------|
|---------------------------------------------------------|
|---------------------------------------------------------|
|---------------------------------------------------------|

A5 B5 E5
Tengo que huir de una forma
Que nadie se acuerde de mi
Quiero borrar los recuerdos
Y destruir mi memoria
Olvidar lo que vi, quien fui

[Riff]

|---------------------------------------------------------|
|---------------------------------------------------------|
|---------------------------------------------------------|
|----------------------0-5-7------------------------------|
|-7-0-5-7-0-5-7-0-5-7---------7-0-5-7-0-5-7-0-5-7-0-3-0---|
|---------------------------------------------------------|

|---------------------------------------------------------|
|---------------------------------------------------------|
|-------------------------------------------------9-------|
|-------------------------------------------------9-------|
|-7p5h77p5h7p5h7p5h7p5h7p5h7p5h7p5h7p5h7p5h7p5h---7-------|
|---------------------------------------------------------|

SISI FALTA EL SOLO NO ES TAN YUCA LUEGO LO SUBO :)

______________________________________________________________________

Transcripción por Angelo (

Hablamos!
Suggest correction
Creating personal tab
Creating personal tab
You can edit any tab online and save it as your Personal.

You can edit, replace or remove any tab part or add personal notes – all changes will be seen only by you.

Personal tabs can be accessed anytime from any device, even offline.
Learn more »
Give kudos to tab author, rate the tab!
1 2 3 4 5
comments
print report bad tab
guest
Wanna post a correction for this tab? Suggest correction