Oops, an error
Loading. Please wait.

Days In The Sun tab

2,782 views 78 this week
no commentswrite comment
1 2 3 4 5
x 3
add to favorites
×
Save as Personal and add changes to this tab that will be seen only by you. Learn more ›
×
You can save this tab as Personal to edit and correct it or add notes. All changes will be seen only by you. Learn more »
launch autoscroll
font size
0
reset
how to read this tab
guitar tuner
edit
Autoscroll
slow
fast
+/-
esc
set tempo
stop
About this tab version
This tab has been arranged as close to how Ziggy played it in the recorded version. The live versions and recordings vary slightly where he may chose to play a certain lick in a different spot or pluck multiple strings. The 5th string doesn't have to be played along with the 6th string but it can give it a more full sound. When the open 5th string note is played at the same time as the 4th string note, it is plucked with your fingers rather than your thumb. The song can be stripped back to playing the intro section through the verses to make it easier to sing along to. Was this info helpful? Yes No
[Intro]
D |----------------------------------------------------------------------|
A |-----------------------------------------0-------0-------0-------0----|
F#|--------------------------------------------3-------3-------3-------3-|
D |---2--2----2h4-0h2p0--2--2----2h4-0h2p0-----0-------0-------0-------0-|
A |------------------------------0--------------0-0-----0-0-----0-0-----0|
D |-0-----0-0----------0-----0-0----------4-----4-4-----0-2-----2-2-----0|

D |----------------------------------------------------------------------|
A |---0-------------------------------------0-------0-------0-------0----|
F#|------3-------------------------------------3-------3-------3-------3-|
D |-2---------2h4-0h2p0--2--2----2h4-0h2p0-----0-------0-------0-------0-|
A |-0---------0----------0----------------------0-0-----0-0-----0-0-----0|
D |-0-----0-0----------0-----0-0----------4-----4-4-----0-2-----2-2-----0|

[Verse 1]
D |----------------------------------------------------------------|
A |---------------------------0-------0-------0-------0-------0----|
F#|------------------------------3-------3-------3-------3-------3-|
D |---2--2----2--2----2--2-------0-------0-------0-------0-------0-|
A |-------------------------0-----0-0-----0-0-----0-0-----0-0-----0|
D |-0-----0-0-----0-0-----0-0-----0-4-----4-4-----0-2-----2-2-----0|

D |---------------------------------------------------------------------|
A |----------------------------------------0-------0-------0-------0----|
F#|-------------------------------------------3-------3-------3-------3-|
D |---2--2----2h4-0h2p0--2--2--2-4-0h2p0------0-------0-------0-------0-|
A |-----------0--------------------------------0-0-----0-0-----0-0-----0|
D |-0-----0-0----------0-----0-0---------4-----4-4-----0-2-----2-2-----0|

D |----------------------------------------------------------------|
A |---0-----------------------0-------0-------0-------0-------0----|
F#|------3-----------------------3-------3-------3-------3-------3-|
D |-2---------2-2-----4--2-------0-------0-------0-------0-------0-|
A |-0---------0-------------0-----0-0-----0-0-----0-0-----0-0------|
D |-0-----0-0-----0-0-----0-0-----0-4-----4-4-----0-2-----2-2-----0|

D |----------------------------------------------------------------------|
A |-----------------------------------------0-------0-------0-------0----|
F#|--------------------------------------------3-------3-------3-------0-|
D |---2--2----2h4-0h2p0--2--2----2h4-0h2p0-----0-------0-------0-------0-|
A |---0-------0----------0----------------------0-0-----0-0-----0-0------|
D |-0-----0-0----------0-----0-0----------4-----4-4-----0-2-----2-2-----0|

D |------------------------------x--|
A |-------------------0----------x--|
F#|---0--0----0--0-------5-------x--|
D |-----------0------------------x--|
A |------------------------------x--|
D |-4-----4-4-----0-5-----5-5----x--|

[Pre-Chorus]
D |------------------------------------------------------|
A |---0-------0----------0-------0----------0-------0----|
F#|-------------------------3------------------3-------3-|
D |---2--2----2h4-0h2p0--2--2----2h4-0h2p0-----0-------0-|
A |------------------------------------------------------|
D |-0-----0-0----------0-----0-0----------4-----4-4-----0|

D |--------------------------------|
A |---0-------0-------0-------0----|
F#|------5-------5-------5-------0-|
D |--------------------------------|
A |--------------------------------|
D |-5-----5-5-----5-5-----5-5-----0|

[Chorus 1]
D |-----------------------------------------------------------------|
A |---0-------0-------0-------0-------0-------0-------0-------0-----|
F#|------0-------0-------0-------0-------0-------0-------0-------0--|
D |------0-------0-------0-------0-------0-------0-------0-------0--|
A |-9-----9-9-----9\7-----7-7-----7\5-----5-5-----5-5-----5-5-----5/|
D |-9-----9-9-----9\7-----7-7-----7\5-----5-5-----5-5-----5-5-----5/| X3

D |-------------------------------------------------------------x---|
A |---0-------0-------0-------0-------0-------0-------0-----0---x---|
F#|------0-------0-------0-------0-------0-------0-------0--0---x---|
D |------0-------0-------0-------0-------0-------0-------0--0---x---|
A |-9-----9-9-----9\7-----7-7-----7\5-----5-5-----5-5-------5---x---|
D |-9-----9-9-----9\7-----7-7-----7\5-----5-5-----5-5-------5---x---|
                                                          ^Strum

[Instrumental]
D |----------------------------------------------------------------------|
A |---0-------------------------------------0-------0-------0-------0----|
F#|------0-------------------------------------3-------3-------3-------3-|
D |-2----2----2h4-0h2p0--2--2----2h4-0h2p0-----0-------0-------0-------0-|
A |-0---------0----------0----------------------0-0-----0-0-----0-0-----0|
D |-0-----0-0----------0-----0-0----------4-----4-4-----0-2-----2-2-----0|

[Verse 2]
D |-------------------------------------------------------------------|
A |--------------------------------------0-------0-------0-------0----|
F#|-----------------------------------------3-------3-------3-------3-|
D |---2--2----2--2----2--2----2h4-0h2p0-----0-------0-------0-------0-|
A |---------------------------0--------------0-0-----0-0-----0-0-----0|
D |-0-----0-0-----0-0-----0-0----------4-----4-4-----0-2-----2-2-----0|

D |--------------------------------------------------------------------|
A |---------------------------------------0-------0-------0-------0----|
F#|------------------------------------------3-------3-------3-------3-|
D |---2--2----2h4-0h2p0--2--2--2-4-0h2p0-------------------------------|
A |-----------0-------------------------------0-0-----0-0-----0-0-----0|
D |-0-----0-0----------0-----0-0--------4-----4-4-----0-2-----2-2-----0|

D |----------------------------------------------------------------|
A |---0-----------------------0-------0-------0-------0-------0----|
F#|------3-----------------------3-------3-------3-------3-------3-|
D |-2---------2-2-----4--2-------0-------0-------0-------0-------0-|
A |-0---------0-------0-----0-----0-0-----0-0-----0-0-----0-0------|
D |-0-----0-0-----0-0-----0-0-----0-4-----4-4-----0-2-----2-2-----0|

D |----------------------------------------------------------------------|
A |-----------------------------------------0-------0-------0-------0----|
F#|--------------------------------------------3-------3-------3-------0-|
D |---2--2----2h4-0h2p0--2--2----2h4-0h2p0-----------------------------0-|
A |---0------------------0----------------------0-0-----0-0-----0-0------|
D |-0-----0-0----------0-----0-0----------4-----4-4-----0-2-----2-2-----0|

D |------------------------------x-|
A |-------------------0----------x-|
F#|---0--0----0--0-------5-------x-|
D |-----------0------------------x-|
A |-0----------------------------x-|
D |-4-----4-4-----0-5-----5-5----x-|

[Pre-Chorus]
D |------------------------------------------------------|
A |-----------------------------------------0-------0----|
F#|--------------------------------------------0-------0-|
D |-2-2--2----2h4-0h2p0----------2h4-oh2p0-----0-------0-|
A |-0--------------------0--0----0--------------0-0------|
D |-0-----0-0----------0-----0-0----------4-----4-4-----0|

D |--------------------------------|
A |---0-------0-------0-------0-0--|
F#|------0-------0-------0---------|
D |------0-------0-------0---------|
A |--------------------------------|
D |-5-----5-5-----5-5-----5-5-----0|

[Chorus 2]
D |-------0---------------0-----------------------------------------|
A |---0-------0-------0-------0-------0-------0-------0-------0-----|
F#|------0-------0-------0-------0-------0-------0-------0-------0--|
D |------0-------0-------0-------0-------0-------0-------0-------0--|
A |-9-----9-9-----9\7-----7-7-----7\5-----5-5-----5-5-----5-5-----5/|
D |-9-----9-9-----9\7-----7-7-----7\5-----5-5-----5-5-----5-5-----5/| X4

D |---------------------------------------0-------0-------0---------|
A |---0-------0-------0-------0-------0-------0-------0-------0-----|
F#|------0-------0-------0-------0-------0-------0-------0-------0--|
D |------0-------0-------0-------0-------0-------0-------0-------0--|
A |-9-----9-9-----9\7-----7-7-----7\5-----5-5-----5-5-----5-5-----5/|
D |-9-----9-9-----9\7-----7-7-----7\5-----5-5-----5-5-----5-5-----5/|

D |-------0---------------0---------------0-----------------------0|
A |---0-------0-------0-------0-------0-------0-------0---------0--|
F#|------0-------0-------0-------0-------0-------0-------0---------|
D |------0-------0-------0-------0-------0-------0-------0---------|
A |-9-----9-9-----9\7-----7-7-----7\5-----5-5-----5-5-------5------|
D |-9-----9-9-----9\7-----7-7-----7\5-----5-5-----5-5-------5---0--|

[Outro]
D |-------------------------------------------------------------------------------0|
A |-----------------------------------------0-------0-------0-----0---0-----------0|
F#|--------------------------------------------3-------3-------3------3-----------0|
D |---2--2----2h4-0h2p0--2--2----2h4-0h2p0-----0--------------------------2~--p0--0|
A |-------------------------------------------------------0-----------------------0|
D |-0-----0-0----------0-----0-0----------4-----4-4-----0-2-----0-2---2—--0-------0|
                                                          (slowing tempo)       ^Strum

h = hammer on
p = pull off
/ = slide up
\ = slide down
x = mute (muted slap)

            
            
Suggest correction
Creating personal tab
Creating personal tab
You can edit any tab online and save it as your Personal.

You can edit, replace or remove any tab part or add personal notes – all changes will be seen only by you.

Personal tabs can be accessed anytime from any device, even offline.
Learn more »
Give kudos to tab author, rate the tab!
1 2 3 4 5
comments
print report bad tab
guest
You may want to rate the tab now too:
select rating
Wanna post a correction for this tab? Suggest correction