Oops, an error
Loading. Please wait.

One Good Spliff Tab

version 1
version 1

Whole song

Interactive

6,703 views 6 this week
1 commentread comment
1 2 3 4 5
please rate
add to favorites
launch autoscroll
font size
0
reset
how to read this tab
guitar tuner
Autoscroll
slow
fast
+/-
esc
set tempo
stop
Help us to improve Ultimate-Guitar.com Take our survey!
×
-------------------------------------------------------------------------------
                             One Good Spliff - Ziggy Marley
-------------------------------------------------------------------------------

Tabbed by:Brian
Email:duckswalkalot@aol.com

e|------------------------------------------------------------------------------|
B|--7-----------0------------------7-------12-10-8-7----------------------------|
G|--7---7-------4---6--------------7---7---12-11-9-7----------------------------|
D|--0---7-------5---7--------------0---7-----------0---(0)(2)(4)----------------|
A|------------------0--(0)(0)(0)------------------------------------------------|
E|------------------------------------------------------------------------------|
i think thats played a couple times and then only the first half is played
afterwards, a cool little part
Suggest correction
Give kudos to tab author, rate the tab!
1 2 3 4 5
comments
print report bad tab
1 comment total.
0 reply
Marsfan 10 wrote on March 29 2009, 12:43 am

I believe the chords for the start are:

-----2----------
-7---3---3---5--
-7---4---4---6--
-7---4---5---7--
-5---2---5---7--
---------3---5--

guest
You may want to rate the tab now too:
select rating
Wanna post a correction for this tab? Suggest correction