Oops, an error
Loading. Please wait.

Whiskey And Guns Bass Tab

204 views 1 this week
no commentswrite comment
1 2 3 4 5
please rate
add to favorites
launch autoscroll
font size
0
reset
guitar tuner
Autoscroll
slow
fast
+/-
esc
set tempo
stop
Help us to improve Ultimate-Guitar.com Take our survey!
×
Author
Difficulty
Tuning
intermediate
D# G# C# F# A# D#
-----------------------------------------------------------------------------
band:Zike
song:Whiskey and Guns
album:Frozen World
-----------------------------------------------------------------------------
Tabbed By : Nimrod Joe
Tuning:half step down

intro/chorus
Gb|-5^^^-4^^^-----------------5^^^-4^^^------------------|
Db|------------6h7777-6h7777-----------------------------|
Ab|-3333-2222-----------------3333-2222------------------|
Eb|--------------------------------------0-1-1-0-1-1-11--|

Gb|-5^^^-4^^^----------------5^^^-4----------------------|
Db|------------6h777-6h7777------------------------------|
Ab|-3333-2222----------------3333-2----------------------|
Eb|----------------------------------3-2-----------------|

Verse
Gb|--------------------------------------------------------------|
Db|--------------------------------------------------------------|
Ab|--------------0h2h3p0---------------0h2h3p0-/66-66------------|
Eb|-00000000/1/3----------00000000/1/3-----------------3-2-------|

Bridge
Gb|-------7------------------------------------------|
Db|----7----7--------6-------------------------------|
Ab|-5-------------6-----6---3-3h4444-3h4444----------|
Eb|------------4-------------------------------------|


\ ^  hold note
| /  slide up
| \  slide down
| h  hammer-on
| p  pull-off
| ~  vibrato
| +  harmonic
| x  Mute note
===============================================================================
Suggest correction
Give kudos to tab author, rate the tab!
1 2 3 4 5
comments
print report bad tab
guest
You may want to rate the tab now too:
select rating
Wanna post a correction for this tab? Suggest correction