Oops, an error
Loading. Please wait.

Zun Da Da tab

by Zion
24 views 1 this week
no commentswrite comment
1 2 3 4 5
3 more votes to show rating
add to favorites
×
Save as Personal and add changes to this tab that will be seen only by you. Learn more ›
×
You can save this tab as Personal to edit and correct it or add notes. All changes will be seen only by you. Learn more »
launch autoscroll
font size
0
reset
how to read this tab
guitar tuner
edit
Autoscroll
slow
fast
+/-
esc
set tempo
stop
zun da da By Jaimenchester

Hola bueno aki les dejo esta canción de reggaetón q me gusta mucho
Este tab es hecho 100% x mi ya q no soy de tocar mucho a tablaturas
sino q mas a oído, y viendo los q han subido esta canción?
mmmmmm  no encontré ninguna  decente?

Eso..


Única simbología:
V= vibracion

Intro violin

e|12v----13-12-------------------------------------------------------
B|----------------13-12-10-------12-10-----13v------12--10--8----10v-
G|--------------------------8-9--------------------------------------
D|-------------------------------------------------------------------
A|-------------------------------------------------------------------
E|-------------------------------------------------------------------


e|--------------20v--------19-20--17v-------15---13-12---------------
B|12v---15--17-------17---------------------------------13p12--9v----
G|-------------------------------------------------------------------
D|-------------------------------------------------------------------
A|-------------------------------------------------------------------
E|-------------------------------------------------------------------


post intro
     LAm             FA               SOL              MIm
e|---------------------------------------------------------------
B|----------------------1----------------------------------------
G|-----5-----------------------2---------4---------------5----4-- ( x2)
D|-----------7---------------------------------5-----------------
A|---------------------------------------------------------------
E|---5-----5---------1------1---------3------3--------0----0-----

Versos:

LAm                     FA
tu encuentro no es algo casual
                       SOL
para mi es un poco ilógico
           MIm
he vivido un acto histórico,
LAm                      FA
tu me has llevado a mi a viajar
                  SOL
eres mi amor platónico, viaje hasta aki
 MIm
por un precio módico

LAm              FA
definitivamente tus labios tienen
      SOL
algo magnético
  MIm
debo tomarme algo energético,
LAm              FA               SOL
no quiero q se caiga este momento mágico,
     MIm
x eso me pongo romántico.


LAm        FA
zundada, zundada
SOL          MIm
zundada zun zundada
LAm         FA
zundada, zundada
SOL          MIm
zundada zun zundada


      LAm
te mirare
     FA
x q yo
         SOL
mirándote a la cara
MIm
me doy cuenta q me muero
      LAm
x tocarte
    FA
como yo
    SOL
te soñé en cada
                MIm
noche q me desvelaba, mami,
       LAm           FA           SOL
sin tu calor, pero no, tire mis sueños en el suelo
         MIm
y aunque casi muero

LAm                   FA
te encontré (te encontré)
SOL                     MIm
te encontré


      LAm
te besare
      FA        SOL
hasta sentirme tuyo
MIm      LAm       FA          SOL
e inventare un mundo para los dos
MIm      LAm         FA     SOL
te abrazare y sentirás mi calor
        MIm      LAm
haremos sexo con ropa
       FA           SOL
esto será entre tu y yo (X2)


   MIm        LAm
bailemos tu y yo

LAm        FA
zundada, zundada
SOL        MIm
zundada zun zundada
LAm        FA
zundada, zundada
SOL         MIm
zundada zun zundada


tu encuentro no es algo casual
para mi es un poco ilógico
he vivido un acto histórico,
tu me as llevado a mi a viajar
eres mi amor platónico, viaje asta aki
por un precio módico


definitivamente tus labios tienen
algo magnético
debo tomarme algo energético,
no quiero q se caiga este momento mágico,
x eso me pongo romántico.


2º año Pef 2008 ulagos osorno

            
            
Suggest correction
Creating personal tab
Creating personal tab
You can edit any tab online and save it as your Personal.

You can edit, replace or remove any tab part or add personal notes – all changes will be seen only by you.

Personal tabs can be accessed anytime from any device, even offline.
Learn more »
Give kudos to tab author, rate the tab!
1 2 3 4 5
comments
print report bad tab
guest
Wanna post a correction for this tab? Suggest correction