Oops, an error
Loading. Please wait.

Dead Chords

version 1
version 1

Acoustic

Interactive

by Zoe
16,341 views 42 this week
1 commentread comment
1 2 3 4 5
excellent!
x 7
add to favorites
launch autoscroll
font size
0
reset
transpose
0
reset
display chords
guitar tuner
Autoscroll
slow
fast
+/-
esc
set tempo
stop
Help us to improve Ultimate-Guitar.com Take our survey!
×
Author
Difficulty
novice
Bueno este es mi primer post hehe , andaba buscando esta rola incluso sin estar 
unplugged pero no la encontraba y pues decidi hacerla yo mismo n_n . Notaran que 
esta version es diferente a la de estudio

Este es el pequeño riff que se oye al principio
 
e|-----------------------------------------------------------------|
B|-----------------------------------------------------------------|
G|-----------------------------------------------------------------|
D|-----2----0---2----0---2(let ring)-------2----0----2------0-0h2--|
A|---------------------------------------------------0h2-----------|
E|---3----3----3---3----------------3----3----3----3---------------|

Se repite hasta que Leon empeza a cantar

G    A    Em
Sé, sé,

           G            A     Em           
Sé como se siente Amor,

           G          A     Em
Como muerde el Corazón,
 
             G       A     Em
cuando se entrega el Al-ma.

G       A     Em
Perdón,

              G        A        Em
Nunca quise hacerte Mal,

              G             A         Em
pero siempre que me acerco al Fuego,

             G        A     Em
Se me escurre el Diablo.

Mini solo antes del coro :
e|---------------------------|
B|---------------------------|
G|------12-----9-------------|
D|--7/9---- 9/7---7/5--------|   X4
A|---------------------------|
E|---------------------------|

CORO:
Bm          C                 Bm
Sieeeeeeento que me vo´ a Morir,

         C                              Bm
Contemplando la membrana Azul,

         C                                  G
De tus ojos fulminando el Tiempo,

          A
y el Espacio.

Bm         C                        Bm          
Sieeeeeento que me voy a hundir,

              C                              Bm
Que mis labios no funcionan más,

                 C                              G
y que tus lágrimas de laser,
 
               A     
Desintegran mis palabras.

G           A          Em
Muerto , Muerto x4


G       A     Em
Perdón,

            G        A        Em
Nunca quise hacerte Mal,

             G             A         Em
pero siempre que me acerco al Fuego,

         G        A     Em
Se me escurre el Diablo.


CORO

G          A                Em
Desintegran mi alma x4

Fin LOL comenten ;D
Suggest correction
comments
print report bad tab
1 comment total.
0 reply
maff1993 10 wrote on July 28 2011, 06:08 pm

Mini solo antes del coro :
e|---------------------------|
B|---------------------------|
G|------12-----11-------------|
D|--7/9---- 9/7---7/5--------| X4
A|---------------------------|
E|---------------------------|

Perdona por la correción pero después del segundo slide es un 11 no un 9. Por el resto perfecto, gracias por tu trabajo. Aguante Zoé! Saludos desde España.

guest
You may want to rate the tab now too:
select rating
Wanna post a correction for this tab? Suggest correction