Oops, an error
Loading. Please wait.

Dead Bass Tab

version 2
version 2

Whole song

Interactive

by Zoe
1,886 views 6 this week
no commentswrite comment
1 2 3 4 5
3 more votes to show rating
add to favorites
launch autoscroll
font size
0
reset
guitar tuner
Autoscroll
slow
fast
+/-
esc
set tempo
stop
Help us to improve Ultimate-Guitar.com Take our survey!
×
Zoe
The Room

Intro
G|---------------------|----------------------|
D|------------6--------|------------6---------|
A|----7---7------7--9--|----7---7------7--9-7-|
E|--9---9---9----------|--9---9---9-----------|

G|---------------------|----------------------|
D|------------6--------|------------6---------|
A|----7---7------7--9--|----7---7------7------|
E|--9---9---9----------|--9---9---9-----------|

Verso
G|---------------------------------|
D|---------------------------------|
A|-----------------7-7-7-7-7-7-7-7-|
E|-9-9-9-9-9-9-9-9-----------------|

Coro
G|-------------------------------------------------------------|
D|----------------7--------------------------------------------|
A|-0-9--9-9-9-9-9---5--5-5-5-5-5-4-0--0-0-0-0-0-4-5--5-5-5-5-5-|
E|-------------------------------------------------------------|

G|-------------------------------------------------------------|
D|----------------7-9--9-9-9-9-9-9-7--7-7-7-7-7-9--------------|
A|-0-9--9-9-9-9-9---------------------------------5--5-5-5-5-4-|
E|-------------------------------------------------------------|

Puente
G|-----------------------------------------------------------------|
D|-----------------------------------------------------------------|
A|-7-7-7-7-7-7-7-7-7-7-7-7-7-7-7-7---------------------------------|
E|---------------------------------9-9-9-9-9-9-9-9-9-9-9-9-9-9-9-9-|

G|-----------------------------------------------------------------|
D|-----------------------------------------------------------------|
A|---------------------------------7-7-7-7-7-7-7-7-7-7-7-7-7-7-7-7-|
E|-5-5-5-5-5-5-5-5-5-5-5-5-5-5-5-5---------------------------------|
Suggest correction
Give kudos to tab author, rate the tab!
1 2 3 4 5
comments
print report bad tab
guest
You may want to rate the tab now too:
select rating
Wanna post a correction for this tab? Suggest correction