Oops, an error
Loading. Please wait.

Microscopio tab

by Zoe
22 views 1 this week
no commentswrite comment
1 2 3 4 5
3 more votes to show rating
add to favorites
×
Save as Personal and add changes to this tab that will be seen only by you. Learn more ›
×
You can save this tab as Personal to edit and correct it or add notes. All changes will be seen only by you. Learn more »
launch autoscroll
font size
0
reset
how to read this tab
guitar tuner
edit
Autoscroll
slow
fast
+/-
esc
set tempo
stop
intro: guitarra 1 ... estandar
e-------------------------------------------------
B-------3-3~-----4-4~-----------3-3~-----4-4~-----
G-------------------------------------------------
D---5-5---------------------5-5-------------------
A------------6-6---------------------6-6----------
E-------------------------------------------------


bass: guitarra 2 ... drop d
e------------------------------------------------- durante la rola
B-------------------------------------------------
G-------------------------------------------------
D--3-4-3-0-3-4-3-0-3-4-3-0------------------------
A--3-4-3-0-3-4-3-0-3-4-3-0------------------------
E--3-4-3-0-3-4-3-0-3-4-3-0------------------------


riff: guitarra 1
e----------------------------------------------------------------------- (*)
B-----------------------------------------------------------------------
G-----------------------------------------------------------------------
D---9-9-999-10-12-9---9-9-999-10-12-8-8-888-10-8---------8--------------
A------------------------------------------------10-8-10---10-8-10------
E-----------------------------------------------------------------------


outro: guitarra 1 y 2
e------------------------------------------------------------------------------
B------------------------------------------------------------------------------
G-----------------------------------12-12-12-121212----------------------------
D---9-9-999-10-12-9---9-9-999-10-12-----------------10-8---------8-------------
A--------------------------------------------------------10-8-10---10-8-10~~---
E------------------------------------------------------------------------------


(*)Las pisadas que estan juntas, es decir sin guión, se tocan con un rasgueo rápido 
comenzando de arriba hacia abajo


	:: intro ::

El microscopio duerme ya
pensé en escribirle un poco
de aquella estrella vegetal
que perdió el mórbido cristal
que le hacía comprender
la curvatura del sueño
y el silencio artificial
Ya no se si podré
seguir plantando siluetas
perdóname por mi levedad.

	:: riff ::

Microscopio
haz de pensar
que todo es un estado normal
y estoy arrepentido
de haberte soñado otra vez.

	:: riff ::

Pensé en escribirle un poco

	:: intro ::

Quisiera comprender
la curvatura de un sueño
y el silencio artificial
ya no se si podré
seguir plantando siluetas
perdóname por mi levedad.

	:: riff ::

Microscopio
haz de pensar
que todo es un estado normal
y estoy arrepentido
de haberte soñado otra vez.

	:: riff ::

Microscopio
haz de pensar
que todo es un estado normal
y estoy arrepentido
de haberte soñado otra vez.

	:: riff ::

Microscopio
haz de pensar
que todo es un estado normal
y estoy arrepentido
de haberte soñado otra vez.

	:: outro ::


=============================================================
zoé es una de las mejores bandas de México con un buen 
balance entre el rock y algunos elementos de música 
electrónica que ayudan a crear atmósferas que envuelven 
toques de distorsion y una voz sutil de la cual se 
desprenden metáforas que te hacen recordar a los caifanes. 

Si te gusta zoé bajate rolas de zurdok o pastilla y no te 
arrepentirás de comprar un disco original de estas bandas ... !
icq 112899266

            
            
Suggest correction
Creating personal tab
Creating personal tab
You can edit any tab online and save it as your Personal.

You can edit, replace or remove any tab part or add personal notes – all changes will be seen only by you.

Personal tabs can be accessed anytime from any device, even offline.
Learn more »
Give kudos to tab author, rate the tab!
1 2 3 4 5
comments
print report bad tab
guest
Wanna post a correction for this tab? Suggest correction