Oops, an error
Loading. Please wait.

She Comes tab

by Zoe
34 views 1 this week
no commentswrite comment
1 2 3 4 5
3 more votes to show rating
add to favorites
×
Save as Personal and add changes to this tab that will be seen only by you. Learn more ›
×
You can save this tab as Personal to edit and correct it or add notes. All changes will be seen only by you. Learn more »
launch autoscroll
font size
0
reset
how to read this tab
guitar tuner
edit
Autoscroll
slow
fast
+/-
esc
set tempo
stop
She Comes (Ella viene)

Intro Teclado seguido del bajo
e------------------
B------------------
G------------------
D------------------
A------------------
E-3p2p3b5-0--3-5-0-

Ella viene en fuego
Ella viene en la lluvia
Ella viene cuando sea que me siento bajo
Ella viene de nuevo

e--0-----------------------------------------------0--------------
B----0----------------------0----0-------------------0------------
G------3--------------3-------3----3----------3--------3----------
D--------2--------2-----------------------2--------------2--------
A---------------4---4-------------------4---4---------------------
E-----------------------------------------------------------------

Ella viene en fuego
Ella viene en la lluvia
Ella viene cuando sea que me siento bajo
Ella viene de nuevo

e--0--------------------------------------------------------------
B----0----------------------0----0--------------------------------
G------3--------------3-------3----3----------3-------------------
D--------2--------2-----------------------2-----------------------
A---------------4---4-------------------4---4---------------------
E-----------------------------------------------------------------

Ella viene en fuego
Ella viene en la lluvia
Ella viene cuando sea que me siento bajo
Ella viene de nuevo

Esto va intercalado con el coro y rasgueado
e--------------------------------
B--------------------------------
G--9---9---9---9---9---9---9---9-
D--8---9---8---9---8---9---8---9-
A--7---7---7---7---7---7---7---7-
E--9---9---9---9---9---9---9---9-

Huuuu Ella viene en el lado iluminado
Huuuu Ella viene en total silencio

Así durante toda esta parte y  va en aumento
e----------------------------
B------11-11---11-11---11-11?
G----------------------------
D----------------------------
A----------------------------
E----------------------------


Solo
e-----------------------------------------------------------------
B---------------------12-11-9-------------------------------------
G-----9----11b-9----9---------11---9-11-9-11b-9--------------9----
D--11---11-------11----------------------------------9--9-11------
A------------------------------------------------9-11-------------
E-----------------------------------------------------------------
X3
Es lo mismo solo cambia la última nota
e-----------------------------------------------------------------
B---------------------12-11-9-------------------------------------
G-----9----11b-9----9---------11---9-11-9-11b-9-------------------
D--11---11-------11----------------------------------9--9-11-9----
A------------------------------------------------9-11-------------
E-----------------------------------------------------------------


e----------------------------------------------
B----------------------------------------------
G----------------------------------------------
D-------------8-----8----------------8----8b---
A---10--9--6-----6-----3?3b5--2---6----6-------
E----------------------------------------------

Ella viene en fuego
Ella viene en la lluvia
Ella viene en fuego
Ella viene en la lluvia


El último solo
e-----------------------------------------
B------11-11-9-9-11-11------9-9-----------
G--8-8----------------11-11----10-10-8-8--
D-----------------------------------------
A-----------------------------------------
E-----------------------------------------
X7

e----------------------------------------------
B------11-11-9-9-11-11--------9-9-9------------
G--8-8----------------11-11-11------11-10-8~---
D----------------------------------------------
A----------------------------------------------
E----------------------------------------------

            
            
Suggest correction
Creating personal tab
Creating personal tab
You can edit any tab online and save it as your Personal.

You can edit, replace or remove any tab part or add personal notes – all changes will be seen only by you.

Personal tabs can be accessed anytime from any device, even offline.
Learn more »
Give kudos to tab author, rate the tab!
1 2 3 4 5
comments
print report bad tab
guest
Wanna post a correction for this tab? Suggest correction