Oops, an error
Loading. Please wait.

Veneno chords

version 2
version 2

Whole song

Interactive

by Zoe
9,354 views 6 this week
no commentswrite comment
1 2 3 4 5
x 9
add to favorites
×
Save as Personal and add changes to this tab that will be seen only by you. Learn more ›
×
You can save this tab as Personal to edit and correct it or add notes. All changes will be seen only by you. Learn more »
launch autoscroll
font size
0
reset
transpose
0
reset
simplify chords
display chords
guitar tuner
edit
Autoscroll
slow
fast
+/-
esc
set tempo
stop
Author
Strumming
There is no strumming pattern for this song yet. and get +5 IQ
    A4   A9    Am   Am7M   Am7   Am*  Em   Em7M   Em7   Em*
e|--0-----0-----0-----0-----0-----0--|----------------------------|
B|--3-----0-----1-----1-----1-----1--|--0-----0-----0-----0-------|
G|--2-----2-----2-----1-----0-----2--|--0-----0-----0-----0-------|
D|--2-----2-----2-----2-----2-----4--|--2-----1-----0-----2-------|
A|--0-----0-----0-----0-----0-----0--|--2-----2-----2-----4-------|
E|-----------------------------------|--0-----0-----0-----0-------|

Intro: A4  A9  A4  A9 Em Em7M Em7 Em*

      Am      Am7M             Am7           Am*          Em           Em7M
Sobre ti, sobre mí, o de estrellas que se funden, si eres tú, si es el sol o 
      Em7      Em*
la luna.
Si es temor, si es rencor, o la falsa indiferencia de una mancha de lluvia en 
tu memoria.

Amanece otra vez y las horas se hacen tibias, se desangran las sombras 
perfumadas. Una araña gigante dando vueltas por el aire, una bola de niebla contraataca.

             F                  Am                F
Hablemos de luces, hablemos de nada, hablemos de cosas de verdad, de lo 
     Am
mortal. A veces tan triste y a veces tan libre, veneno la confusión,
veneno yo

1|-----------5------7------5-----------5------7------5-----| esto se toca 
2|-------5-----5------5------5------5----5------5------5---| durante y después
3|---5h7---5-----5------5------55h7---5-----5------5-----5-| del coro.

1er verso más 2 coros

1|---------------------------------------------|
2|---1----1-------3---3-------6---6----888888--| al finalizar la canción se
3|-2----2---2-2/4---4---4-4/7---7---7--777777--| escucha esto.
4|---------------------------------------------|

dedicada a alguien, solo por ti lo hice...
Suggest correction
Creating personal tab
Creating personal tab
You can edit any tab online and save it as your Personal.

You can edit, replace or remove any tab part or add personal notes – all changes will be seen only by you.

Personal tabs can be accessed anytime from any device, even offline.
Learn more »
comments
print report bad tab
guest
You may want to rate the tab now too:
select rating
Wanna post a correction for this tab? Suggest correction