Oops, an error
Loading. Please wait.

Via Lactea Tab

version 1
version 1
by Zoe
35,647 views 66 this week
1 commentread comment
1 2 3 4 5
worth learning
x 2
add to favorites
launch autoscroll
font size
0
reset
how to read this tab
guitar tuner
Tab Pro tools
  • play this tab
  • loop segment
  • change instrument
  • show fretboard
  • metronome
Autoscroll
slow
fast
+/-
esc
set tempo
stop
Difficulty
novice


-----------------------------------------------------------------
bueno yo voy a ponerles la cancion de via lactea ,.,._.-,,.-,-,-,-
------------------------------------------------------------------


     GUITARRA 2:
        ACORDES
       E-C-E-Am

       GUITARRA 1:
        TOCA LO MISMO PERO MUTEADO

  |------------------------------------|
  |------------------------------------|
  |-------5XXXX---------5XXXX----------|
  |-2XXXX-5XXXX--7XXXX--5XXXX----------|
  |-2XXXX-3XXXX--7XXXX--3XXXX----------|
  |-0XXXX--------5XXXX-----------------|

          Llevo tu voz en mi voz
          grabada con aerosol
          tu beso fantasma
          pegado en mi labio
          inferior,
          y el mapa de tu
          desnudez.
--------------------------
     SE PARA LA GUITARRA 1
--------------------------


               CORO
          -----------------

          Llevo el prisma de tus ojos
          en mi casco de astronauta
          y la tímida aurora de tus células.
         Y todas las noches bajo la Vía Láctea
         parecen eternas si tu no estas.
         Y todas las noches desde mi ventana,
         conjuro tu nombre inmortal.


         ...................................
         GUITARRA 2:.
         ACORDES    .
         C-G-D-Em   .
        .............

        GUITARRA 1:SE ESCUCHA UN LEVE REQUINTO EN EL CORO
  |----5/7---------|
  |----------------|
  |----------------|
  |----------------|
  |----------------| X 14
  |----------------|

  |---(5)----|
  |----------|
  |----------|
  |----------|
  |----------|
  |----------|

----------------------------------------
    RIFF MUSICAL
----------------------------------------

SE ESCUCHA EL INTRO DE BAJO Y DESPUES UN REQUINTO
  |-------------------------------------------------|
  |---5-3-------------------------------------------|
  |--------4-2-0-2-4-4-2-0-2-2-2-4-2-0-2-2-2-5-4----|
  |-------------------------------------------------|
  |-------------------------------------------------|
  |-------------------------------------------------|

  -------------------------------------------------------
              SE REPITEN LOS ACORDES DEL PEINCIPIO
  -------------------------------------------------------

     Y aveces llora mi piel,
     cuando se empaña de anhelo
     se infla mi mente,
     con tantos recuerdos,
     que ya no me puedo dormir.

     Y en la alfombra de tus sueños
     soy el rayo vagabundo
     y desmaya y dolece,
     pero no se apaga.

  ---------------------------------------------------------
                           CORO
  ---------------------------------------------------------
                  DESPUES
       GUITARRA 2:
        ACORDES
       E-C-E-Am
     Llevo el prisma de tus ojos
     en mi casco de astronauta
     y la tímida aurora de tus células.

----------------------------
       SOLO
------------------------------------------------------|
  |----7-7-7/8-7-5-7-7-7-7-7-7-(X3)-------------------|
  |----------------------------------7-7-8-8-8-8-8----|
  |---------------------------------------------------|
  |---------------------------------------------------|
  |---------------------------------------------------| (X3)
  |---------------------------------------------------|

   Vía Láctea, Vía Láctea, Vía Láctea.

   Si tu no estas.

   Vía Láctea, Vía Láctea, Vía Láctea.

   Si tu no estas.

   Y se que te vuelvo a encontrar.

  -------------------------------------------------------------------
 BUENO ESO ES TODO ESPERO QUE LE SIRVA NOS VEMOS EN OTRA TAB PARA LIRA-
comments
We did not receive enough feedback on this tab! Please rate:
print report bad tab
1 2 3 4 5
1 comment total.
0 reply
guso_slp wrote on December 9 2015, 08:00 pm, edited at 08:01 pm

En el primer solo:|-------------------------------------------------| |---5-3(h)-5--------------------------------------------| |--------4-5-0-2-2-4(h)-2-4-2-4(h)-2-4-5(s)-4 |-----------------------------------------------| |-----------------------------------------------| |-----------------------------------------------|

I want to post or [tab]
guest
You may want to rate the tab now too:
select rating
Please do not post tabs as comments. Select "correction" instead!