Oops, an error
Loading. Please wait.

New Shoes Bass

1,395,543 views 1 this week
2 commentsread comments
1 2 3 4 5
x 3
add to favorites
launch autoscroll
font size
0
reset
guitar tuner
×
Best way to learn
"New Shoes"
Autoscroll
slow
fast
+/-
esc
set tempo
stop
Song: New Shoes
Band: Zoinks
Album: Stranger Anxiety
Tabbed by: Scotty

Intro and Throughtout 1st and-2nd Verse
G|----------------------------------------|
D|----------------------------------------|
A|------2-3-5-5-5-----------3-3-3-3-3-2-0-|
E|3-3-3----------0-0-0-0-0-0--------------|

Chorus
G|--------------------------------|
D|--------------------------------|
A|--------5-5-5-5---------3-3-3-3-|
E|3-3-3-3---------0-0-0-0---------|
Suggest correction
Give kudos to tab author, rate the tab!
1 2 3 4 5
comments
print report bad tab
2 comments total.
0 reply
t0os 66 Nov 07, 2007 03:18 AM

great

0 reply
_RATM_ 47 Nov 07, 2007 03:20 AM

i think u mean D standard

guest
You may want to rate the tab now too:
select rating
Wanna post a correction for this tab? Suggest correction