Oops, an error
Loading. Please wait.

Hot Situation Tab

239 views 1 this week
1 commentread comment
1 2 3 4 5
please rate
add to favorites
launch autoscroll
font size
0
reset
how to read this tab
guitar tuner
Tab Pro tools
  • play this tab
  • loop segment
  • change instrument
  • show fretboard
  • metronome
Autoscroll
slow
fast
+/-
esc
set tempo
stop
Difficulty
intermediate
Intro/Verse
eb-------------------------------------|
Bb-------------------------------------|
Gb-----5-5/7-7---7---------------------|
Db-3---5-5/7-7---7-8-8/10-10-----------|x7
Ab-3---3-3/5-5---5-8-8/10-10-----------|
Eb-1---------------6-6/8--8------------|

Pre-Chorus
eb-------------------------------------|
Bb-------------------------------------|
Gb-----5-5/7-7---7---------------------|
Db-3---5-5/7-7---7-8-8-----------------|x1
Ab-3---3-3/5-5---5-8-8-----------------|
Eb-1---------------6-6pm---------------|

Chorus
eb-------------------------------------|
Bb-------------------------------------|
Gb-5-----------10----------------------|
Db-5-x8--8-----10-x4-------------------| x3
Ab-3-----8-x4--8-----------------------|
Eb-------6-----------------------------|

Bridge
eb-------------------------------------|
Bb-------------------------------------|
Gb-7-----------------------------------|
Db-7------------8----------------------|x1
Ab-5-let ring---8-let ring-------------|
Eb--------------6----------------------|

I don't know the solo.
comments
We did not receive enough feedback on this tab! Please rate:
print report bad tab
1 2 3 4 5
1 comment total.
0 reply
weezergeek182 wrote on February 14 2013, 11:16 pm

Solo:
e|--------------------------14-12-15b-12-14--12-14------|
B|---------------------9-12-------------------------12--|
G|-11p9v--11b-9-11-11b----------------------------------|
D|------------------------------------------------------|
A|------------------------------------------------------|
E|------------------------------------------------------|

e|----16p12---16p12---16p12--|
B|--14------14------14-------|
G|---------------------------| x2
D|---------------------------|
A|---------------------------|
E|---------------------------|

e|-16-16b-14-12-----------------14-12-16b-----------|
B|--------------14----------------------------------|
G|--------------------9v-11s14----------------------|
D|-----------------11-------------------------------|
A|--------------------------------------------------|
E|--------------------------------------------------|

I want to post or [tab]
guest
You may want to rate the tab now too:
select rating
Please do not post tabs as comments. Select "correction" instead!