Oops, an error
Loading. Please wait.
599 views 3 this week
no commentswrite comment
1 2 3 4 5
please rate
add to favorites
launch autoscroll
font size
0
reset
how to read this tab
guitar tuner
Autoscroll
slow
fast
+/-
esc
set tempo
stop
Help us to improve Ultimate-Guitar.com Take our survey!
×
Artist: Zolof The Rock And Roll Destroyer
Song: Moment
Album Jalopy Go Far

Intro Riff: (Keys):
|--------------------------| |--------------------|
|--------------------------| |--------------------|
|-----9-6-4-2-464646464----| |---9-6-4-4-6-4-2-2--|
|--------------------------| |--------------------|
|--7-----------------------| |-7------------------|
|--------------------------| |--------------------|


Intro/Main Riff:
|-------------------------------------------------------------------|2x
|-------------------------------------------------------------------|
|-9-9-9-9---------9-9-9-9---------9-9-9-9---------------------------|
|-9-9-9-9-9-9-9-9-9-9-9-9-7-7-7-7-9-9-9-9-9-9-9-9-7-7-7-7-7-7-7-7---|
|-7-7-7-7-9-9-9-9-7-7-7-7-7-7-7-7-7-7-7-7-9-9-9-9-7-7-7-7-7-7-7-7---|
|-7-7-7-7-7-7-7-7---------5-5-5-5---------7-7-7-7-5-5-5-5-5-5-5-5---|


Verse: Muted
|-------------------------------------------------------------------|2x
|-------------------------------------------------------------------|
|-9-9-9-9---------9-9-9-9---------9-9-9-9---------------------------|
|-9-9-9-9-9-9-9-9-9-9-9-9-7-7-7-7-9-9-9-9-9-9-9-9-7-7-7-7-7-7-7-7---|
|-7-7-7-7-9-9-9-9-7-7-7-7-7-7-7-7-7-7-7-7-9-9-9-9-7-7-7-7-7-7-7-7---|
|-7-7-7-7-7-7-7-7-7-7-7-7-5-5-5-5-7-7-7-7-7-7-7-7-5-5-5-5-5-5-5-5---|

(I know...)
|-------------------------------------------------------------------|2x
|-------------------------------------------------------------------|
|-----------------4-4-4-4-4-4-4-4-9-9-9-9---------------------------|
|-4-4-4-4-4-4-4-4-4-4-4-4-4-4-4-4-9-9-9-9-9-9-9-9-7-7-7-7-7-7-7-7---|
|-4-4-4-4-4-4-4-4-2-2-2-2-2-2-2-2-7-7-7-7-9-9-9-9-7-7-7-7-7-7-7-7---|
|-2-2-2-2-2-2-2-2-----------------7-7-7-7-7-7-7-7-5-5-5-5-5-5-5-5---|
 

Bridge:
|-------------------------------------------------------------------|
|-------------------------------------------------------------------|
|-------------------------------------------------------------------|
|-14-14-----16-16-----18-18-----19-19-----18/21/18--16-16-1616-14-14|
|-x--x------x--x------x--x------x--x------x---------x--x--x-x--x--x-|
|-12-12-----14-14-----16-16-----17-17-----16/19/16--14-14-1414/12-12|


|-------------------------------------------------------------------|2x
|-------------------------------------------------------------------|
|-9-9-9-9---------9-9-9-9---------9-9-9-9---------------------------|
|-9-9-9-9-9-9-9-9-9-9-9-9-7-7-7-7-9-9-9-9-9-9-9-9-7-7-7-7-7-7-7-7---|
|-7-7-7-7-9-9-9-9-7-7-7-7-7-7-7-7-7-7-7-7-9-9-9-9-7-7-7-7-7-7-7-7---|
|-7-7-7-7-7-7-7-7---------5-5-5-5---------7-7-7-7-5-5-5-5-5-5-5-5---|
\Second 16x

|-----------------------------------------------------------------------|
|-----------------------------------------------------------------------|
|-----------------------------------------------------------------------|
|14-14-14-14-16-16-16-16-18-18-18-18-19-19-19-19-21-21-21-21-23-23-23-23|
|-----------------------------------------------------------------------|
|12-12-12-12-14-14-14-14-16-16-16-16-17-17-17-17-19-19-19-19-21-21-21-21|

|-----------------------------------------------------------------------|
|-----------------------------------------------------------------------|
|-----------------------------------------------------------------------|
|25-25-25-25-25-25-25-25-25-25-25-25-23-23-23-23-21-21-21-21-19-19-19-19|
|-----------------------------------------------------------------------|
|23-23-23-23-23-23-23-23-23-23-23-23-23-23-23-23-21-21-21-21-21-21-21-21|

|-----------------------------------------------------------------------|
|-----------------------------------------------------------------------|
|-----------------------------------------------------------------------|
|18-18-18-18-16-16-16-16-14-14-14-14-14-14-14-14------------------------|
|-----------------------------------------------------------------------|
|19-19-19-19-19-19-19-19-17-17-17-17-17-17-17-17------------------------|

|-------------------------------------------------------------------|2x
|-------------------------------------------------------------------|
|-----------------4-4-4-4-4-4-4-4-9-9-9-9---------------------------|
|-4-4-4-4-4-4-4-4-4-4-4-4-4-4-4-4-9-9-9-9-9-9-9-9-7-7-7-7-7-7-7-7---|
|-4-4-4-4-4-4-4-4-2-2-2-2-2-2-2-2-7-7-7-7-9-9-9-9-7-7-7-7-7-7-7-7---|
|-2-2-2-2-2-2-2-2-----------------7-7-7-7-7-7-7-7-5-5-5-5-5-5-5-5---|
\Second time play 16x

|---------------------------------------------------------------|
|---------------------------------------------------------------|
|-9-------------------------------------------------------------|
|-9-------------------------------------------------------------|
|-7-------------------------------------------------------------|
|-----1/12------------------------------------------------------|
Suggest correction
Give kudos to tab author, rate the tab!
1 2 3 4 5
comments
print report bad tab
guest
You may want to rate the tab now too:
select rating
Wanna post a correction for this tab? Suggest correction