Oops, an error
Loading. Please wait.
143 views 1 this week
no commentswrite comment
1 2 3 4 5
please rate
add to favorites
launch autoscroll
font size
0
reset
how to read this tab
guitar tuner
Autoscroll
slow
fast
+/-
esc
set tempo
stop
Help us to improve Ultimate-Guitar.com Take our survey!
×
Author
Difficulty
novice
-------------------------------------------------------------------------------
                             Oh William - Zolof The Rock and Roll Destroyer
-------------------------------------------------------------------------------
Tabbed by:Vtrillo627
Email:it_dies_today84@yahoo.com

Tuning:Standard



Intro:

Guitar 1

e|---12-12--11-11-------------------------------------|
B|----------------12-12-------9-9--12-12--------------|
G|----------------------11-11------------11-----------| x2
D|-------------------------------------------13-------|
A|----------------------------------------------14----|
E|----------------------------------------------------|

Guitar 2

     C#    E     B
e|---x-----0-----x-----|
B|---5-----0-----4-----|
G|---6-----1-----4-----| x4
D|---6-----2-----4-----|
A|---4-----2-----2-----|
E|---x-----0-----x-----|



Verse 1:

     C#    E     B     B  B
e|---x-----0-----x-----x--x-----|
B|---5-----0-----4-----4--4-----|
G|---6-----1-----4-----4--4-----| x4
D|---6-----2-----4-----4--4-----|
A|---4-----2-----2-----2--2-----|
E|---x-----0-----x-----x--x-----|



Chorus 1:

     A     E     B     B     B 
e|---x-----0-----x-----x-----x-------|
B|---2-----0-----4-----4-----4-------|
G|---2-----1-----4-----4-----4-------| x2
D|---2-----2-----4-----4-----4--x2---|
A|---0-----2-----2-----2-----2-------|
E|---x-----0-----x-----x-----x-------|

     A     E     B
e|---x-----0-----x-----|
B|---2-----0-----4-----|
G|---2-----1-----4-----|
D|---2-----2-----4-----|
A|---0-----2-----2-----|
E|---x-----0-----x-----|



Intro:

Guitar 1

e|---12-12--11-11-------------------------------------|
B|----------------12-12-------9-9--12-12--------------|
G|----------------------11-11------------11-----------| 
D|-------------------------------------------13-------|
A|----------------------------------------------14----|
E|----------------------------------------------------|

Guitar 2

     C#    E     B
e|---x-----0-----x-----|
B|---5-----0-----4-----|
G|---6-----1-----4-----| x2
D|---6-----2-----4-----|
A|---4-----2-----2-----|
E|---x-----0-----x-----|



Verse 2:

     C#    E     B     B  B
e|---x-----0-----x-----x--x-----|
B|---5-----0-----4-----4--4-----|
G|---6-----1-----4-----4--4-----| x4
D|---6-----2-----4-----4--4-----|
A|---4-----2-----2-----2--2-----|
E|---x-----0-----x-----x--x-----|



Chorus 2:

     A     E     B     B 
e|---x-----0-----x-----x-------|
B|---2-----0-----4-----4-------|
G|---2-----1-----4-----4-------| x3
D|---2-----2-----4-----4--x6---|
A|---0-----2-----2-----2-------|
E|---x-----0-----x-----x-------|


     A       E       B 
e|---x-------0-------x---------|
B|---2-------0-------4---------|
G|---2-------1-------4---------| 
D|---2--x6---2--x6---4--x-12---|
A|---0-------2-------2---------|
E|---x-------0-------x---------|



Outro:


Guitar 1

e|---12-12--11-11-------------------------------------|
B|----------------12-12-------9-9--12-12--------------|
G|----------------------11-11------------11-----------| 
D|-------------------------------------------13-------|
A|----------------------------------------------14----|
E|----------------------------------------------------|

Guitar 2

     C#             C#    E     B
e|---x------       -x-----0-----x-----|
B|---6------       -5-----0-----4-----|
G|---6------ x1    -6-----1-----4-----| x3
D|---6------       -6-----2-----4-----|
A|---4------       -4-----2-----2-----|
E|---x------       -x-----0-----x-----|




| /  slide up
| \  slide down
| h  hammer-on
| p  pull-off
| ~  vibrato
| +  harmonic
| x  Mute note
===============================================================================
Suggest correction
Give kudos to tab author, rate the tab!
1 2 3 4 5
comments
print report bad tab
guest
You may want to rate the tab now too:
select rating
Wanna post a correction for this tab? Suggest correction