Oops, an error
Loading. Please wait.

Theres That One Person Youll Never Get Over No Matter How Long Its Bee Tab

6,350 views 3 this week
2 commentsread comments
1 2 3 4 5
excellent!
x 6
add to favorites
launch autoscroll
font size
0
reset
how to read this tab
guitar tuner
Tab Pro tools
  • play this tab
  • loop segment
  • change instrument
  • show fretboard
  • metronome
Autoscroll
slow
fast
+/-
esc
set tempo
stop
Difficulty
novice
Zolof the Rock and Roll Destroyer- There's That One Person You'll
Never Get Over No Matter How Long It's Been
Tabbed by Grundle the Taint

Someone screwed up about half past the night -----------------
wish I'd been up I could've had a blast and then run         |
but I know know there's that one person everyone has         |- verse 1
that messed them up and they're still thinking about them ---

 A                      B
they're everywhere    they're everywhere 

between the booze bob goes go out and have fun---------------
now nodding off I know I should've listened to him          |
but I know now that i'm not half as bad as I thought        |-- verse 2
it's everyone and I feel better knowing that ----------------

A                       B
we're everywhere    we're everywhere




Verse(1 and 2):
E----------------------------------------------|
B----------------------------------------------|
G---6-------/--8-------/--9-------9------------|
D---x--(x5)-/--x--(x5)-/--x-(x5)--6(x5)--------|
A---4-------/--6-------/--7-------7------------|
E---5-------/--7-------/-----------------------|



Anthong Green at his best
email correction to : jstadt@purdue.edu

http://www.zoloftherockandrolldestroyer.com/
comments
print report bad tab
2 comments total.
0 reply
BlankJebus wrote on October 27 2008, 05:43 pm

nice tab! 5 stars

-1 reply
glazeglaze wrote on March 26 2009, 07:32 am

Verse(1 and 2):
E----------------------------------------------|
B----------------------------------------------|
G---6-------/--8-------/--9-------9------------|
D---x--(x5)-/--x--(x5)-/--x-(x5)--6(x5)--------|
A---4-------/--6-------/--7-------7------------|
E---5-------/--7-------/--0-------0------------|

i'm guessing just from how it sounds.

I want to post or [tab]
guest
You may want to rate the tab now too:
select rating
Please do not post tabs as comments. Select "correction" instead!