Oops, an error
Loading. Please wait.

Eternity Tab

version 1
version 1

Whole song

393 views 1 this week
no commentswrite comment
1 2 3 4 5
please rate
add to favorites
launch autoscroll
font size
0
reset
how to read this tab
guitar tuner
Tab Pro tools
  • play this tab
  • loop segment
  • change instrument
  • show fretboard
  • metronome
×
Best way to learn
"Eternity"
Autoscroll
slow
fast
+/-
esc
set tempo
stop
Contributor
Difficulty
novice
-------------------------------------------------------------------------------
                             Eternity - Zombeast
-------------------------------------------------------------------------------
Tabbed by: Kris Oliver
Email: smoking_bats138@yahoo.com  my old email address was crklekay_42000@yahoo.com but 
anymore CHEERS!

This is a really easy song because the intro and chorus are the same throughout the 
song.

Tuning: standard

intro
e|---------------------------------------------------------------------------|
B|---------------------------------------------------------------------------|
G|--4-4----------------------------------------------------------------------|
D|--4-4---\5-5-4~~-----------------------------------------------------------|
A|--2-2----------------------------------------------------------------------|
E|---------------------------------------------------------------------------|

This part is during the verse and later in the chorus
e|---------------------------------------------------------------------------|
B|---------------------------------------------------------------------------|
G|---------------------------------------------------------------------------|
D|--4-4-----------7-7--------------------------------------------------------|
A|--2-2-5-5-5-4-4-5-5-7---Repeat a couple of times---------------------------|
E|------3-3-3-2-2-----5------------------------------------------------------|

This is when the chorus begins
e|---------------------------------------------------------------------------|
B|---------------------------------------------------------------------------|
G|--4-4----------------------------------------------------------------------|
D|--4-4---\5-5-4~~-----------------------------------------------------------|
A|--2-2----------------------------------------------------------------------|
E|---------------------------------------------------------------------------|


| /  slide up
| \  slide down
| h  hammer-on
| p  pull-off
| ~  vibrato
| +  harmonic
| x  Mute note
===============================================================================
comments
We did not receive enough feedback on this tab! Please rate:
print report bad tab
1 2 3 4 5
I want to post or [tab]
guest
You may want to rate the tab now too:
select rating
Please do not post tabs as comments. Select "correction" instead!