Oops, an error
Loading. Please wait.

Eternity Tab

version 2
version 2

Whole song

288 views 16 this week
no commentswrite comment
1 2 3 4 5
please rate
add to favorites
launch autoscroll
font size
0
reset
how to read this tab
guitar tuner
Tab Pro tools
  • play this tab
  • loop segment
  • change instrument
  • show fretboard
  • metronome
×
Best way to learn
"Eternity"
Autoscroll
slow
fast
+/-
esc
set tempo
stop
-------------------------------------------------------------------------------
                             ETERNITY - Zombeast
-------------------------------------------------------------------------------
Tabbed by:
Email:

Tuning:standard

intro

  (0:23)
e|--------------------------|-------------------------------|
B|--------------------------|-------------------------------|
G|-4--4---------------------|-----4--4----------------------|
D|-4--4---/5---5-4----------|-----4--4----/5---5-4----------|
A|-2--2---------------------|-----2--2----------------------|
E|--------------------------|-------------------------------|

 verse/chorus
e|-----------------------------|-----------------------------|
B|-----------------------------|-----------------------------|
G|-4--4------------------7-7---|-4--4------------------7-7---|
D|-4--4----5-5-5-4--4----7-7---|-4--4----5-5-5-4--4----7-7---|
A|-2--2----5-5-5-4--4----5-5-0-|-2--2----5-5-5-4--4----5-5-0-|
E|---------3-3-3-2--2----------|---------3-3-3-2--2----------|

e|-----------------------------|-----------------------------|
B|-----------------------------|-----------------------------| 
G|-4--4------------------7-7---|-4--4------------------7-7---|
D|-4--4----5-5-5-4--4----7-7---|-4--4----5-5-5-4--4----7-7---|
A|-2--2----5-5-5-4--4----5-5-0-|-2--2----5-5-5-4--4----5-5-0-|
E|---------3-3-3-2--2----------|---------3-3-3-2--2----------|

  solo
e|-----------------------------------------------------------|
B|-----------------------------------------------------------|
G|-4--4------------------------------------4h5p4h5-7~4-5---4-|
D|-4--4---/5---5-4-----4h5p4h5---5--7----7---------------5---|
A|-2--2------------------------------------------------------|
E|-----------------------------------------------------------|

e|-------------------------------------------------------------|
B|--------------------------------------------5---5---5---5----|
G|-------/5-4-5----------/5-4-5--------/5-4-5---4---4---6---6--|
D|-7--7-7----------5--5-5----------7--7------------------------|
A|-------------------------------------------------------------|
E|-------------------------------------------------------------|

e|-----------------------------|-------------------------------|
B|-12b---14--12-11-------------|-------------------------------|
G|----------------------12--11-|-9-----------------------------|
D|-----------------------------|----------/5--5-4--------------|
A|-----------------------------|-------------------------------|
E|-----------------------------|-------------------------------|


| /  slide up
| \  slide down
| h  hammer-on
| p  pull-off
| ~  vibrato
| +  harmonic
| x  Mute note
===============================================================================
comments
We did not receive enough feedback on this tab! Please rate:
print report bad tab
1 2 3 4 5
I want to post or [tab]
guest
You may want to rate the tab now too:
select rating
Please do not post tabs as comments. Select "correction" instead!