Oops, an error
Loading. Please wait.

Espera tab

20 views 3 this week
no commentswrite comment
1 2 3 4 5
3 more votes to show rating
add to favorites
×
Save as Personal and add changes to this tab that will be seen only by you. Learn more ›
×
You can save this tab as Personal to edit and correct it or add notes. All changes will be seen only by you. Learn more »
launch autoscroll
font size
0
reset
how to read this tab
guitar tuner
edit
Autoscroll
slow
fast
+/-
esc
set tempo
stop
ESPERA


Esta realmente es una buena cancion ya que tiene
mucho significado a si que aquí les va
Tambien pueden tocar con arpegios menos el Ã?oro
asi que ya saben es depende de ustedes  ^^^^^^^
¡Y que viva la raza!
Estos son los acordes que están en el intro
                  6 5 4 3 2 1
Esus/DÂ?Â?Â?         x x 2 2 3 0
(A/D)Â?Â?Â?..        x x 3 2 3 0

Intro:

  Dm                C
e|------1-0------|-------0-------|
B|-----3----3----|------1--1-----|
G|----2------2---|-----2----2----|
D|---0-----------|---------------|
A|---------------|---3-----------|
E|---------------|---------------|
   A#              A
e|------1--------|-------0-------||
B|-----3--3------|-----2---2-----||
G|---3-----3-----|----2-----2----||
D|---------------|---2-----------||
A|--1------------|--0------------||
E|---------------|---------------||


  Dm              Esus/D
e|------1-0------|-----0---------|
B|-----3----3----|-------3-------|
G|----2------2---|---------2-----|
D|---0-----------|---------------|
A|---------------|---2-3---------|
E|---------------|---------------|
   A#              A
e|------1--------|---------------||
B|-----3--3------|----x----------||
G|---3-----3-----|----2----------||
D|---------------|----2----------||
A|--1------------|----0----------||
E|---------------|---------------||

    Dm           C            A#          A
Has llegado a la frontera y no puedes avanzar
        Dm             Esus/D       A#           A
Pues la muerte esta rondando y solo te queda esperar
    Dm          C           A#             A
Has vivido a tu manera y hoy no puedes sentir
    Dm           Esus/D          A#         A
Que aquello haya tenido algún motivo por vivir


       Dm          C         A#            A
Tantas noches de parranda de drogas y de alcohol
       Dm          Esus/D       A#           A
No han llenado ese vacío y solo quedan sin sabor
         Dm                C            A#           A
Tú piensas que has probado todo y que nada te convenció
      Dm            Esus/D        A#          A
Y hoy quitándote la vida hoy piensas esto termino

Coro:

Puente:

  Dm    A#      F             C          A            E
EspeÂ?.eÂ?era que aun queda esperanza algo que no viste aun
  Dm    A#          A             A#          A
EspeÂ?.eÂ?era hay una luz que alumbrara tu caminar

INTERMEDIO:

  Dm         C     A#       A
e|-----5---------|-----6----------|
B|----6--6-----6-|----6--6-----6--|
G|---7----7--7---|---7----7-------|
D|--7------7-----|--8-------8-----|
A|-5-------------|-8--------8-----|
E|---------------|----------------|

   Dm        Esus/D        A#                             A
e|----------10-12-13-12-10---10-10---------------------------||
B|---------------------------------10-10---------------------||
G|---10-12----------------------------------10-----10-12/13--||
D|-12------------------------------------12-----12-----------||
A|-----------------------------------------------------------||
E|-----------------------------------------------------------||

     Dm              C             A#           A
Hubo alguien que ase tiempo dio su vida en una cruz
       Dm         Esus/D        A#          A
Para que en ese momento no haya muerte sino luz
       Dm            C         A#           A
Y de a tu vida un sentido un motivo por vivir
       Dm         Esus/D       A#           A
Y que borre las heridas que marcaron tu existir

Coro:

Puente:

  Dm    A#      F             C          A            E
EspeÂ?.eÂ?era que aun queda esperanza algo que no viste aun
  Dm    A#          A              A#         A
EspeÂ?.eÂ?era hay una luz que alumbrara tu caminar
           Dm                  A#                  F
Llenando el vacío con gran contenido con paz celestial
             C
que solo el da
        A#                  A                     A#
Y que no dura tan solo un momento sino que es por toda la
       A
eternidad

Punteo:
no mas que no la saque todavía  pero esta en base:

Dm - A# - F - C - A - E - F - C - A# - A -
Dm - A# - F - C - A# - A - A# - A - CÂ?


     Dm         C          A#            A
Ya conoces el camino solo tienes que elegir
      Dm           Esus/D    A#           A
Si terminas con tu vida o si dejas de sufrir
     Dm          C           A#          A
Entregando a Jesucristo tu manera de actuar
    Dm            Esus/D     A#          A
Y dejando que hoy mismo te comience a cambiar


Estodo espero que les guste cualquier cosa a mi correo
fran_zhok@
Ahh  saludos para  rudi de la B.B.T. que no quería
prestarme su guitarra

            
            
Suggest correction
Creating personal tab
Creating personal tab
You can edit any tab online and save it as your Personal.

You can edit, replace or remove any tab part or add personal notes – all changes will be seen only by you.

Personal tabs can be accessed anytime from any device, even offline.
Learn more »
Give kudos to tab author, rate the tab!
1 2 3 4 5
comments
print report bad tab
guest
Wanna post a correction for this tab? Suggest correction