Oops, an error
Loading. Please wait.

Vuelo chords

9 views 1 this week
no commentswrite comment
1 2 3 4 5
3 more votes to show rating
add to favorites
×
Save as Personal and add changes to this tab that will be seen only by you. Learn more ›
×
You can save this tab as Personal to edit and correct it or add notes. All changes will be seen only by you. Learn more »
launch autoscroll
font size
0
reset
transpose
0
reset
display chords
guitar tuner
edit
Autoscroll
slow
fast
+/-
esc
set tempo
stop
Strumming
There is no strumming pattern for this song yet. and get +5 IQ
holas bueno hsy les va esta cancion
que esta facil de tocarla
el intro tienen que tocarla con puente....///
si qieren toda la cancion


Intro:
       //A - F

    A               F
e|---------------|-----------------|
B|----------5----|-----------1-----|
G|------6-----6--|------2------2---|
D|--------7------|--------3--------|
A|----7----------|----3------------|
E|--5------------|--1--------------|

    A               F
e|---------------|--------1--------|
B|----------5----|-----------------|
G|------6-----6--|------2----------|
D|--------7------|----3------------|
A|----7----------|-----------------|
E|--5------------|--1--------------|

A        F
Al inalar esa maldad
A             F
Parece que tu mundo
                A
se esta transformando
           E
En algo mejor
A                F
Se siente al fin
         A
La libertad
     F                     A
De aquello que desdicha tu vida
          E
Y te trae mal


Dm              F            A
   Regresar de aquel godo vuelo
Dm                      F
Todo vuelve a ser tan incierto
          E
No hubo remedio
      A                F
Para que refugiar y buscar tu sacio
   C                         E
En algo que no es duradero ni eterno
      A                     F
si tu cuerpo al final destruyéndose esta
     C                         E
y tu alma se arrastra al agujero

    A               F
e|---------------|-----------------|
B|----------5----|-----------1-----|
G|------6-----6--|------2------2---|
D|--------7------|--------3--------|
A|----7----------|----3------------|
E|--5------------|--1--------------|

    A               F
e|---------------|----------1------|
B|----------5----|-----------------|
G|------6-----6--|------2----------|
D|--------7------|----3---3--------|
A|----7----------|-----------------|
E|--5------------|--1--------------|

A           F
podes hallar eterna paz
A
 solo en Jesús
    F                      A            E
porque el dio su vida ase tiempo en una cruz
           A      F         A
se siente al fin    la libertad
  F                       A
aquella que anhelava tu alma
             E
y no tiene final


      A                F
Para que refugiar y buscar tu sacio
   C                         E
En algo que no es duradero ni eterno
      A                     F
si tu cuerpo al final destruyéndose esta
     C                         E
y tu alma se arrastra al agujero
Dm              F           A
busca salida en algo de verdad
Dm         F                  E
ese es Jesucristo el te limpiara oye y ye oye y ye


punteo: esta en base
                     A - C - Dm -F
                     A - C - Dm -E


      A                F
Para que refugiar y buscar tu sacio
   C                         E
En algo que no es duradero ni eterno
      A                     F
si tu cuerpo al final destruyéndose esta
     C                         E
y tu alma se arrastra al agujero


final:
            ////A-F-A-E-A-


estodo cualquier duda ami correo-----///que esta ariba

            
            
Suggest correction
Creating personal tab
Creating personal tab
You can edit any tab online and save it as your Personal.

You can edit, replace or remove any tab part or add personal notes – all changes will be seen only by you.

Personal tabs can be accessed anytime from any device, even offline.
Learn more »
Give kudos to tab author, rate the tab!
1 2 3 4 5
comments
print report bad tab
guest
Wanna post a correction for this tab? Suggest correction