Oops, an error
Loading. Please wait.

The Armageddon Anthem tab

version 1
version 1

Whole song

Interactive

by Zonaria
275 views 3 this week
no commentswrite comment
1 2 3 4 5
3 more votes to show rating
add to favorites
×
Save as Personal and add changes to this tab that will be seen only by you. Learn more ›
×
You can save this tab as Personal to edit and correct it or add notes. All changes will be seen only by you. Learn more »
launch autoscroll
font size
0
reset
how to read this tab
guitar tuner
edit
Autoscroll
slow
fast
+/-
esc
set tempo
stop
-----------------------------------------------------------------------------
                             THE ARMAGEDDON ANTHEM - Zonaria
-----------------------------------------------------------------------------
Tabbed by: Samee
Email: xcrunner64@yahoo.com

Tuning: Drop A (for 6-string guitars): A E A D F# B

 |---------------------------------------------------|
 |---------------------------------------------------|
 |-----------8pb---------7-----------6---------------|
 |---------------------7---6-------6-----333-3-2-2-2-|
 |-----0-7-8---------5-----------5-----5-333-3-2-2-2-|
 |-000-----------000---------000---------333-3-2-2-2-|
PM ...       +   ...         ...         ... . . . .

 |---------------------------------------------------|
 |---------------------------------------------------|
 |-----------8pb---------7-----------6---------------|
 |---------------------7---6-------6-----222-2-------|
 |-----0-7-8---------5-----------5-----5-222-2-2bs---|
 |-000-----------000---------000---------222-2-------|
PM ...       +   ...         ...               +

 |---------------------------------------------------|
 |---------------------------------------------------|
 |-----------8pb---------7-----------6---------------|
 |---------------------7---6-------6-----333-3-2-2-2-|
 |-----0-7-8---------5-----------5-----5-333-3-2-2-2-|
 |-000-----------000---------000---------333-3-2-2-2-|
PM ...       +   ...         ...         ... . . . .

 |---------------------------------------------------|
 |---------------------------------------------------|
 |-----------8pb---------7-----------6---------------|
 |---------------------7---6-------6-----333-3-2-2-2-|
 |-----0-7-8---------5-----------5-----5-333-3-2-2-2-|
 |-000-----------000---------000---------333-3-2-2-2-|
PM ...       +   ...         ...

 |---------------------------------------------------|
 |---------------------------------------------------|
 |-----------8pb---------7-----------6---------------|
 |---------------------7---6-------6-----333-3-2-2-2-|
 |-----0-7-8---------5-----------5-----5-333-3-2-2-2-|
 |-000-----------000---------000---------333-3-2-2-2-|
PM ...       +   ...         ...         ... . . . .

 |---------------------------------------------------|
 |---------------------------------------------------|
 |-----------8pb---------7-----------6---------------|
 |---------------------7---6-------6-----333-3-2-2-2-|
 |-----0-7-8---------5-----------5-----5-333-3-2-2-2-|
 |-000-----------000---------000---------333-3-2-2-2-|
PM ...       +   ...         ...

 |---------------------------------------------------|
 |---------------------------------------------------|
 |-----------8pb---------7-----------6---------------|
 |---------------------7---6-------6-----333-3-2-2-2-|
 |-----0-7-8---------5-----------5-----5-333-3-2-2-2-|
 |-000-----------000---------000---------333-3-2-2-2-|
PM ...       +   ...         ...         ... . . . .

 |---------------------------------------------------|
 |---------------------------------------------------|
 |-----------8pb---------7-----------6---------------|
 |---------------------7---6-------6-----333-3-2-2-2-|
 |-----0-7-8---------5-----------5-----5-333-3-2-2-2-|
 |-000-----------000---------000---------333-3-2-2-2-|
PM ...       +   ...         ...

 |--------------------------------------------------------------------|
 |-------------------7777777777779999999999996666666666665bs----------|
 |--------------------------------------------------------------------|
 |-0-----(0)-----(0)-----(0)-----(0)-----(0)-----(0)-----(0)-----(0)--|
 |-0-----(0)-----(0)-----(0)-----(0)-----(0)-----(0)-----(0)-----(0)--|
 |-0-----(0)-----(0)-----(0)-----(0)-----(0)-----(0)-----(0)-----(0)--|

 |--------------------------------------------------------------------------|
 |--------------------------------------------------------------------------|
 |--------------------------------------------------------------------------|
 |--------------------------------------------------------------------------|
 |----------5------------------------5----------------------5---------------|
 |-0--0--x-----7-5-7-8-7~~--0--0--x-----7-5-6-5----0--0--x-----7-5-7-8-7~~--|

 |------------------------------------------------------------------------|
 |------------------------------------------------------------------------|
 |------------------------------------------------------------------------|
 |------------------------------------------------------------------------|
 |-0--0--x--5-------------0--0--x--5---------------0--0--x--5-------------|
 |-0--0--x-----7-5-6-5----0--0--x-----7-5-7-8-7~~--0--0--x-----7-5-6-5----|

 |-------------------------------------------------|
 |-------------------------------------------------|
 |-------------------------------------------------|
 |-------------------------------------------------|
 |-0--0--x--5---------------0--0--x--5-------------|
 |-0--0--x-----7-5-7-8-7~~--0--0--x-----7-5-6-5----|

 |---------------------------------------------------|
 |---------------------------------------------------|
 |-----------8pb---------7-----------6---------------|
 |---------------------7---6-------6-----333-3-2-2-2-|
 |-----0-7-8---------5-----------5-----5-333-3-2-2-2-|
 |-000-----------000---------000---------333-3-2-2-2-|
PM ...       +   ...         ...         ... . . . .

 |---------------------------------------------------|
 |---------------------------------------------------|
 |-----------8pb---------7-----------6---------------|
 |---------------------7---6-------6-----333-3-2-2-2-|
 |-----0-7-8---------5-----------5-----5-333-3-2-2-2-|
 |-000-----------000---------000---------333-3-2-2-2-|
PM ...       +   ...         ...

 |---------------------------------------------------|
 |---------------------------------------------------|
 |-----------8pb---------7-----------6---------------|
 |---------------------7---6-------6-----333-3-2-2-2-|
 |-----0-7-8---------5-----------5-----5-333-3-2-2-2-|
 |-000-----------000---------000---------333-3-2-2-2-|
PM ...       +   ...         ...         ... . . . .

 |---------------------------------------------------------|
 |---------------------------------------------------------|
 |-----------8pb---------7-----------6---------------------|
 |---------------------7---6-------6-----333-3-2-2-2-0-----|
 |-----0-7-8---------5-----------5-----5-333-3-2-2-2-0-----|
 |-000-----------000---------000---------333-3-2-2-2-0-----|
PM ...       +   ...         ...

 |--------------------------------------------------------------------------|
 |--------------------------------------------------------------------------|
 |--------------------------------------------------------------------------|
 |--------------------------------------------------------------------------|
 |----------5------------------------5----------------------5---------------|
 |-0--0--x-----7-5-7-8-7~~--0--0--x-----7-5-6-5----0--0--x-----7-5-7-8-7~~--|

 |------------------------------------------------------------------------|
 |------------------------------------------------------------------------|
 |------------------------------------------------------------------------|
 |------------------------------------------------------------------------|
 |-0--0--x--5-------------0--0--x--5---------------0--0--x--5-------------|
 |-0--0--x-----7-5-6-5----0--0--x-----7-5-7-8-7~~--0--0--x-----7-5-6-5----|

 |-------------------------------------------------|
 |-------------------------------------------------|
 |-------------------------------------------------|
 |-------------------------------------------------|
 |-0--0--x--5---------------0--0--x--5-------------|
 |-0--0--x-----7-5-7-8-7~~--0--0--x-----7-5-6-5----|

 |--------------------------------------------------------------------|
 |--------------------------------------------------------------------|
 |--------------------------------------------------------------9-----|
 |-3--------------------0---3~~-2----3--------------------------9-----|
 |-1-----2-5-2------0-----------0----1----2-5-------0---5---8~~-7-----|
 |-------------3-x----0---0-------------------0-3-x---0---0-----------|
PM                    .   .                   .       .   .

 |---------------------------------------------------------------------|
 |---------------------------------------------------------------------|
 |---------------------------------------------------------------------|
 |-------------------------4-------------------------------------------|
 |-2-----------------------2-------------------------------------------|
 |-2---------------------------------------4-5-5-5-2-2-2-2-2-2-2-2-2-2-|

 |-----------------------------------------------------------|
 |-----------------------------------------------------------|
 |-----------------------------------------------------------|
 |-----7-----------------------------------------------------|
 |-5---5---2------9--------9\--------------------------------|
 |-5-------2------9--------9\--2-2-2-2-2-2-2-2-2-2-5----7----|

 |---------------------------------------------------------------|
 |---------------------------------------------------------------|
 |---------------------------------------------------------------|
 |-------------------------2------------------------------2------|
 |-------------------------0------------------------------0------|
 |-000--0---0------0---0----------000--0---0------0---0----------|
PM ...  .   .      .   .          ...  .   .      .   .


Play either of the two parts

Part 1
 |-----------------------------------|
 |-----------------------------------|
 |-----------------------------------|X2
 |-----5/7------5/7----------2-------|
 |-----3/5------3/5----------0-------|
 |-0--------0--------0---2-------2~~-|
PM .        .        .   .

Part2
 |---------------------------3-3-0-0-0-----|
 |-----6-3-5-6-5---3-6---------------------|
 |-----------------------------------------|X2
 |-----------------------------------------|
 |-----------------------------------------|
 |-0---------------------0-----------------|
PM .                     .


 |--------------------------------------------------------------------------|
 |--------------------------------------------------------------------------|
 |--------------------------------------------------------------------------|
 |--------------------------------------------------------------------------|
 |----------5------------------------5----------------------5---------------|
 |-0--0--x-----7-5-7-8-7~~--0--0--x-----7-5-6-5----0--0--x-----7-5-7-8-7~~--|

 |------------------------------------------------------------------------|
 |------------------------------------------------------------------------|
 |------------------------------------------------------------------------|
 |------------------------------------------------------------------------|
 |----------5----------------------5------------------------5-------------|
 |-0--0--x-----7-5-6-5----0--0--x-----7-5-7-8-7~~--0--0--x-----7-5-6-5----|

 |-------------------------------------------------|
 |-------------------------------------------------|
 |-------------------------------------------------|
 |-------------------------------------------------|
 |----------5------------------------5-------------|
 |-0--0--x-----7-5-7-8-7~~--0--0--x-----7-5-6-5----|

 |---------------------------------------------------------------|
 |---------------------------------------------------------------|
 |---------------------------------------------------------------|
 |-------------------------2------------------------------2------|
 |-------------------------0------------------------------0------|
 |-000--0---0------0---0----------000--0---0------0---0----------|
PM ...  .   .      .   .          ...  .   .      .   .


Play either of the two parts

Part 1
 |-----------------------------------|
 |-----------------------------------|
 |-----------------------------------|X2
 |-----5/7------5/7----------2-------|
 |-----3/5------3/5----------0-------|
 |-0--------0--------0---2-------2~~-|
PM .        .        .   .

Part2
 |---------------------------3-3-0-0-0-----|
 |-----6-3-5-6-5---3-6---------------------|
 |-----------------------------------------|X2
 |-----------------------------------------|
 |-----------------------------------------|
 |-0---------------------0-----------------|
PM .                     .


 |--------------------------------------------------------------------|
 |--------------------------------------------------------------------|
 |--------------------------------------------------------------9-----|
 |-3--------------------0---3~~-2----3--------------------------9-----|
 |-1-----2-5-2------0-----------0----1----2-5-------0---5---8~~-7-----|
 |-------------3-x----0---0-------------------0-3-x---0---0-----------|
PM                    .   .                   .       .   .

 |---------------------------------------------------------------------|
 |---------------------------------------------------------------------|
 |---------------------------------------------------------------------|
 |-------------------------4-------------------------------------------|
 |-2-----------------------2-------------------------------------------|
 |-2---------------------------------------4-5-5-5-2-2-2-2-2-2-2-2-2-2-|

 |-----------------------------------------------------------|
 |-----------------------------------------------------------|
 |-----------------------------------------------------------|
 |-----7-----------------------------------------------------|
 |-5---5---2------9--------9\--------------------------------|
 |-5-------2------9--------9\--2-2-2-2-2-2-2-2-2-2-5----7----|

 |---------------------------------------------------|
 |---------------------------------------------------|
 |-----------8pb---------7-----------6---------------|
 |---------------------7---6-------6-----333-3-2-2-2-|
 |-----0-7-8---------5-----------5-----5-333-3-2-2-2-|
 |-000-----------000---------000---------333-3-2-2-2-|
PM ...       +   ...         ...         ... . . . .

 |---------------------------------------------------|
 |---------------------------------------------------|
 |-----------8pb---------7-----------6---------------|
 |---------------------7---6-------6-----333-3-2-2-2-|
 |-----0-7-8---------5-----------5-----5-333-3-2-2-2-|
 |-000-----------000---------000---------333-3-2-2-2-|
PM ...       +   ...         ...

 |---------------------------------------------------|
 |---------------------------------------------------|
 |-----------8pb---------7-----------6---------------|
 |---------------------7---6-------6-----333-3-2-2-2-|
 |-----0-7-8---------5-----------5-----5-333-3-2-2-2-|
 |-000-----------000---------000---------333-3-2-2-2-|
PM ...       +   ...         ...         ... . . . .

 |--------------------------------------------------------|
 |--------------------------------------------------------|
 |-----------8pb---------7-----------6--------------------|
 |---------------------7---6-------6-----333-3-2-2-3----x-|
 |-----0-7-8---------5-----------5-----5-333-3-2-2-3----x-|
 |-000-----------000---------000---------333-3-2-2-3----x-|
PM ...       +   ...         ...         ... . . .


************************************

| /   slide up
| \   slide down
| ~   vibrato
| +   pinch harmonic
| x   mute note
| (#) let ring
| b   Bend
| bs  Bend slowly
| pb  Pre-bend

************************************
Suggest correction
Creating personal tab
Creating personal tab
You can edit any tab online and save it as your Personal.

You can edit, replace or remove any tab part or add personal notes – all changes will be seen only by you.

Personal tabs can be accessed anytime from any device, even offline.
Learn more »
Give kudos to tab author, rate the tab!
1 2 3 4 5
comments
print report bad tab
guest
You may want to rate the tab now too:
select rating
Wanna post a correction for this tab? Suggest correction