Oops, an error
Loading. Please wait.

Race To The Bottom tab

199 views 3 this week
no commentswrite comment
1 2 3 4 5
3 more votes to show rating
add to favorites
×
Save as Personal and add changes to this tab that will be seen only by you. Learn more ›
×
You can save this tab as Personal to edit and correct it or add notes. All changes will be seen only by you. Learn more »
launch autoscroll
font size
0
reset
how to read this tab
guitar tuner
edit
Autoscroll
slow
fast
+/-
esc
set tempo
stop
Author
Difficulty
Part 1a
(0:00)
E|-x-x-----------------------------------------------------------------|
C|-x-x-12-----7---5---7---x-7/9p0----------------------------------7p0-|
G|-x-x-12-----7---5---7---x-7/9p0-5-----x-7\9-9-9\5-5---------0h7/9----|
C|-x-x----------------------------x-----x-x---x-x---x---0h5h7----------|
A|-x-x-12-----7---5---7-----------7-----x-5/7-7-7\3-3------------------|
F|-x-x-----------------------------------------------------------------|

(0:06)
E|------------------------------------------------------------0-----|
C|----------------------------------------------------------------0-|
G|-14-----17---12---9---x-7/9p0-5-----x-5/7-7-7\5-5/7-----5h7---7---|
C|-12-----16---12---9---x-7/9p0-x-----x-x---x-x---x-----------------|
A|-12-----15---10---7-----------3-----x-3/5-5-5\3-3/5-5h7-----------|
F|------------------------------------------------------------------|

(0:10)
E|-----------------------------------------------------------------|
C|-12-----7---5---7---x-7/9p0----------------------------------7p0-|
G|-12-----7---5---7---x-7/9p0-5-----x-7\9-9-9\5-5---------0h7/9----|
C|----------------------------x-----x-x---x-x---x---0h5h7----------|
A|-12-----7---5---7-----------7-----x-5/7-7-7\3-3------------------|
F|-----------------------------------------------------------------|

(0:15)
E|------------------------------------------------------------0-----|
C|----------------------------------------------------------------0-|
G|-14-----17---12---9---x-7/9p0-5-----x-5/7-7-7\5-5/7-----5h7---7---|
C|-12-----16---12---9---x-7/9p0-x-----x-x---x-x---x-----------------|
A|-12-----15---10---7-----------3-----x-3/5-5-5\3-3/5-5h7-----------|
F|------------------------------------------------------------------|

Part 2
(0:19)
E|-------------------------------------------------------------------------|
C|------------------------------0---x-7-------------4h5p4------------------|
G|-5---x-----5h7/9p7---7---7h9p7----x-9-----7------------5p0-7---7---5/7\5-|
C|-5---x-5h7------------------------x-9-----7----------------7---7---------|
A|-5---x----------------------------x-8-----7----------------7---7---------|
F|-------------------9---9-------------------------------------------------|

(0:24)
E|-----------------------------------------------------------------------|
C|------------------------------0---x-7-------------4h5p4--------------7-|
G|-5---x-----5h7/9p7---7---7h9p7----x-9-----7------------5p0-7---7---x-9-|
C|-5---x-5h7------------------------x-9-----7----------------7---7---x-9-|
A|-5---x----------------------------x-8-----7----------------7---7---x-8-|
F|-------------------9---9-----------------------------------------------|

Part 1b
(0:30)
E|-----------------------------------------------------------------|
C|-12-----7---5---7---x-7/9p0----------------------------------7p0-|
G|-12-----7---5---7---x-7/9p0-5-----x-7\9-9-9\5-5---------0h7/9----|
C|----------------------------x-----x-x---x-x---x---0h5h7----------|
A|-12-----7---5---7-----------7-----x-5/7-7-7\3-3------------------|
F|-----------------------------------------------------------------|

(0:34)
E|------------------------------------------------------------0-----|
C|----------------------------------------------------------------0-|
G|-14-----17---12---9---x-7/9p0-5-----x-5/7-7-7\5-5/7-----5h7---7---|
C|-12-----16---12---9---x-7/9p0-x-----x-x---x-x---x-----------------|
A|-12-----15---10---7-----------3-----x-3/5-5-5\3-3/5-5h7-----------|
F|------------------------------------------------------------------|

(0:39)
E|-----------------------------------------------------------------|
C|-12-----7---5---7---x-7/9p0----------------------------------7p0-|
G|-12-----7---5---7---x-7/9p0-5-----x-7\9-9-9\5-5---------0h7/9----|
C|----------------------------x-----x-x---x-x---x---0h5h7----------|
A|-12-----7---5---7-----------7-----x-5/7-7-7\3-3------------------|
F|-----------------------------------------------------------------|

(0:43)
E|----------------------------------------------------------------------------|
C|------------------------------------------------------------5p4-------------|
G|-14-----17---12---9---x-7/9p0-5-----x-5/7-7-7\5-5/7-----5h7-----5p0-----5h7-|
C|-12-----16---12---9---x-7/9p0-x-----x-x---x-x---x---5h7-------------5h7-----|
A|-12-----15---10---7-----------3-----x-3/5-5-5\3-3/5-------------------------|
F|----------------------------------------------------------------------------|

Part 3
(0:48)
   .   .   .   .   .
E|---------------------------------|
C|---------------------------------|
G|---------------------5/7-7-7-7\5-|
C|-5---5---5---5---5---5/7-7-7-7\5-|
A|-5---5---5---5---5---5/7-7-7-7\5-|
F|---------------------------------|

(0:51)
E|--------------------------------------------------------------|
C|-4-------4h5p4------7---4h0-----------0-----------------------|
G|-5---5--------5p0-----------------5-----5---------5p0---------|
C|-5-----5----------5---5-------------5----5------4-----2h4p2p0-|
A|-5------------------------------------------------------------|
F|------------------------------4---------------2---------------|

(0:56)
E|------------------------------------------0------------------------|
C|-4-------4h5p4------------7-----------------0--------------7h9p7p0-|
G|-5---5--------5p0-5---5h7---7p5-------5-------0--------5p0---------|
C|-5-----5----------x---------------------5------------4-------------|
A|-5----------------7------------------------------------------------|
F|----------------------------------4----------------2---------------|

(1:01)
E|--------------------------------------------------------------|
C|-4-------4h5p4------7---4h0-----------0-----------------------|
G|-5---5--------5p0-----------------5-----5---------5p0---------|
C|-5-----5----------5---5-------------5----5------4-----2h4p2p0-|
A|-5------------------------------------------------------------|
F|------------------------------4---------------2---------------|

(1:06)
E|------------------------------------------0------------------------|
C|-4-------4h5p4------------7-----------------0--------------7h9p7p0-|
G|-5---5--------5p0-5---5h7---7p5-------5-------0--------5p0---------|
C|-5-----5----------x---------------------5------------4-------------|
A|-5----------------7------------------------------------------------|
F|----------------------------------4----------------2---------------|

Part 4
(1:11)
E|---8-p-0-----------8p0---------8-p-0-------------0-----------|
C|-----7-------7-------------7-----7-------7-----5-p-0-----4p0-|
G|-----------0-----0-------0-------------0-----0---------0-----|
C|---------9-------------9-------------9-----7---------5-------|
A|-8-------------8-------------8-------------------------------|
F|-------------------------------------------------------------|

(1:16)
E|---8-p-0-----------8p0---------8-p-0-------------0-----5p0---|
C|-----7-------7-------------7-----7-------7-----5-p-0-------0-|
G|-----------0-----0-------0-------------0-----0---------------|
C|---------9-------------9-------------9-----7-----------------|
A|-7-------------7-------------7-----------------------5-------|
F|-------------------------------------------------------------|

(1:20)
E|---8-p-0-----------8p0---------8-p-0-------------0-----------|
C|-----7-------7-------------7-----7-------7-----5-p-0-----4p0-|
G|-----------0-----0-------0-------------0-----0---------0-----|
C|---------9-------------9-------------9-----7---------5-------|
A|-8-------------8-------------8-------------------------------|
F|-------------------------------------------------------------|

(1:25)
E|---8-p-0-----------8p0---------8-p-0-------------0-----5p0---|
C|-----7-------7-------------7-----7-------7-----5-p-0-------0-|
G|-----------0-----0-------0-------------0-----0---------------|
C|---------9-------------9-------------9-----7-----------------|
A|-7-------------7-------------7-----------------------5-------|
F|-------------------------------------------------------------|

Part 5
(1:30)
E|-------0-------0-------0-------0-------0-------0-------0-------0-|
C|-------0-------0-------0-------0-----7-7-----7-7-----7-7-----7-7-|
G|-----7-------7-------7-------7-------7-------7-------7-------7---|
C|-----9-------9-------9-------9-----------------------------------|
A|-8-------8-------8-------8-------7-------7-------7-------7-------|
F|-----------------------------------------------------------------|

(1:36)
E|-------0-----------0-----------0-------0-------0-------0-------0-|
C|-------4-----------4-----------0-------7-------7-------7-------7-|
G|-----5---5-------5---5-------5-------7-------7-------7-------7---|
C|-----5-----------5-----------5-------0-------0-------0-------0---|
A|-5-----------5-----------5-------7-------7-------7-------7-------|
F|-----------------------------------------------------------------|

(1:41)
E|-------0-------0-------0-------0-------0-------0-------0-------0-|
C|-------0-------0-------0-------0-------7-------7-------7-------7-|
G|-----7-------7-------7-------7-------7-------7-------7-------7---|
C|-----9-------9-------9-------9-------0-------0-------0-------0---|
A|-8-------8-------8-------8-------7-------7-------7-------7-------|
F|-----------------------------------------------------------------|

(1:46)
E|-------0-----------0-----------0-0---0-0-0---0-0-0---0-0-0---0-0-|
C|-------4-----------4-----------0-7---7-7-7---7-7-7---7-7-7---7-7-|
G|-----5---5-------5---5-------5---7---7-7-7---7-7-7---7-7-7---7-7-|
C|-----5-----------5-----------5---0---0-0-0---0-0-0---0-0-0---0-0-|
A|-5-----------5-----------5-------7---7-7-7---7-7-7---7-7-7---7-7-|
F|-----------------------------------------------------------------|

Part 1c
(1:51)
E|--------------------x-x-x-x-x---------x-x-x-----|
C|-12-----7---5---7---x-x-x-x-x---------x-x-x-----|
G|-12-----7---5---7---x-x-x-x-x-7---9---x-x-x-5~~-|
C|--------------------x-x-x-x-x-x---x---x-x-x-x---|
A|-12-----7---5---7---x-x-x-x-x-5---7---x-x-x-3~~-|
F|--------------------x-x-x-x-x---------x-x-x-----|

(1:55)
E|----------------------x-x-x-x-x--------------------------------|
C|----------------------x-x-x-x-x--------------------------------|
G|-14-----17---12---9---x-x-x-x-x-9---7---x-x-x-12-----5---7---5-|
C|-12-----16---12---9---x-x-x-x-x-x---x---x-x-x-x------x---x---x-|
A|-12-----15---10---7---x-x-x-x-x-7---5---x-x-x-10-----3---5---3-|
F|----------------------x-x-x-x-x--------------------------------|

(1:59)
E|--------------------x-x-x-x-x---------x-x-x-----|
C|--------------------x-x-x-x-x---------x-x-x-----|
G|-12-----7---5---7---x-x-x-x-x-7---9---x-x-x-5~~-|
C|--------------------x-x-x-x-x-x---x---x-x-x-x---|
A|-12-----7---5---7---x-x-x-x-x-7---8---x-x-x-5~~-|
F|--------------------x-x-x-x-x---------x-x-x-----|

(2:02)
E|----------------------x-x-x-x-x--------------------------------------|
C|----------------------x-x-x-x-x--------------------------------------|
G|-14-----17---12---9---x-x-x-x-x-9---7---x-x-x-12-----5---7---5---12--|
C|-12-----16---12---9---x-x-x-x-x-x---x---x-x-x-x------x---x---x---x---|
A|-12-----15---10---7---x-x-x-x-x-7---5---x-x-x-10-----3---5---3---10--|
F|----------------------x-x-x-x-x--------------------------------------|

(2:06)
E|-------------------------------7N.H.-------12N.H.-|
C|-------------------------------7N.H.-------12N.H.-|
G|--5---7---5---12---5---7---5---7N.H.-------12N.H.-|
C|--x---x---x---x----x---x---x---7N.H.-------12N.H.-|
A|--3---5---3---10---3---5---3---7N.H.-------12N.H.-|
F|-------------------------------7N.H.-------12N.H.-|

Part 7
(2:10)
E|-3------------------------------------------------------------------------------|
C|-4-------4-------5-------4-----------4----------------------------------------4-|
G|-5-------5-------5-------5-------5h7--------------9T-p5p0-7T-p5p0-9T-p5p0-5h7---|
C|-5-------5-------5-------x---------------12T-p5p0-------------------------------|
A|-0-------5---------------5---------------7t-------------------------------------|
F|--------------------------------------------------------------------------------|

(2:14)
E|-3----------------------------------------------------------------------0-|
C|-4-------4-------5-------4-------7h9p7-----------------5p4----------------|
G|-5-------5-------5-------5-------------9---7h9p0-5h7p0-----5p0-5/7\5-5/7--|
C|-5-------5-------5-------x-----------------0-----0------------------------|
A|-0-------5---------------5-----------------8-----5------------------------|
F|-------------------------------------------0-----0------------------------|

(2:19)
E|-3------------------------------------------------------------------------------|
C|-4-------4-------5-------4-----------4----------------------------------------4-|
G|-5-------5-------5-------5-------5h7-----12T-p5p0-9T-p5p0-7T-p5p0-9T-p5p0-5h7---|
C|-5-------5-------5-------x------------------------------------------------------|
A|-0-------5---------------5---------------7t-------------------------------------|
F|--------------------------------------------------------------------------------|

(2:23)
E|-3------------------------------------------------------------------------|
C|-4-------4-------5-------4-------7h9p7-----------------5p4--------------0-|
G|-5-------5-------5-------5-------------9---7h9p0-5h7p0-----5p0-5/7\5-5/7--|
C|-5-------5-------5-------x-----------------0-----0------------------------|
A|-0-------5---------------5-----------------8-----5------------------------|
F|-------------------------------------------0-----0------------------------|

Part 8
(2:28)
E|-----------0------------------0--------------0------------------12----|
C|-------------0--------------5---------------------0----------14----12-|
G|-----0---0------------0---0-------------0-----------------12----------|
C|-------5----------------7----------12-----12---12---12h14-------------|
A|-----------------------------------12---------------------------------|
F|-2----------------4----------------12---------------------------------|

(2:33)
E|------------10-------------------------------------0-------------0---|
C|------12-------12----------7---7h9p7-----------0-------------------0-|
G|---------12-------12---------9-------9p0---7-----7---9br-----5h7-----|
C|-------------------------------------------7---------7---------------|
A|-----------------------8-------------------7---------8---5h7---------|
F|-11------------------------------------------------------------------|

(2:39)
E|-----------0------------------0--------------0------------------12----|
C|-------------0--------------5---------------------0----------14----12-|
G|-----0---0------------0---0-------------0-----------------12----------|
C|-------5----------------7----------12-----12---12---12h14-------------|
A|-----------------------------------12---------------------------------|
F|-2----------------4----------------12---------------------------------|

(2:44)
E|------------10-------------------------------------0-------------0---|
C|------12-------12----------7---7h9p7-----------0---------------------|
G|---------12-------12---------9-------9p0---7-----7---9br-----5h7---5-|
C|-------------------------------------------7---------7---------------|
A|-----------------------8-------------------7---------8---5h7---------|
F|-11------------------------------------------------------------------|

(2:50)
E|-----------0------------------0--------------0------------------12----|
C|-------------0--------------5---------------------0----------14----12-|
G|-----0---0------------0---0-------------0-----------------12----------|
C|-------5----------------7----------12-----12---12---12h14-------------|
A|-----------------------------------12---------------------------------|
F|-2----------------4----------------12---------------------------------|

(2:55)
E|------------10-------------------------------------0-------------0---|
C|------12-------12----------7---7h9p7-----------0---------------------|
G|---------12-------12---------9-------9p0---7-----7---9br-----5h7---5-|
C|-------------------------------------------7---------7---------------|
A|-----------------------8-------------------7---------8---5h7---------|
F|-11------------------------------------------------------------------|

(3:01)
E|-7N.H.-7N.H.-7N.H.-7N.H.----------|
C|-7N.H.-7N.H.-7N.H.-7N.H.----------|
G|-7N.H.-7N.H.-7N.H.-7N.H.-5~~~~~~~-|
C|-7N.H.-7N.H.-7N.H.-7N.H.-5~~~~~~~-|
A|-7N.H.-7N.H.-7N.H.-7N.H.-5~~~~~~~-|
F|-7N.H.-7N.H.-7N.H.-7N.H.-0~~~~~~~-|

--------------------------------------------------------

| h     hammer-on
| p     pull-off
| /     slide up
| \     slide down
| X     dead note
| t     left hand tap
| T     right hand tap
| N.H.  natural harmonic
| ~     tremelo

            
            
Suggest correction
Creating personal tab
Creating personal tab
You can edit any tab online and save it as your Personal.

You can edit, replace or remove any tab part or add personal notes – all changes will be seen only by you.

Personal tabs can be accessed anytime from any device, even offline.
Learn more »
Give kudos to tab author, rate the tab!
1 2 3 4 5
comments
print report bad tab
guest
You may want to rate the tab now too:
select rating
Wanna post a correction for this tab? Suggest correction