Oops, an error
Loading. Please wait.

Losing Sight tab

196 views 3 this week
no commentswrite comment
1 2 3 4 5
3 more votes to show rating
add to favorites
×
Save as Personal and add changes to this tab that will be seen only by you. Learn more ›
×
You can save this tab as Personal to edit and correct it or add notes. All changes will be seen only by you. Learn more »
launch autoscroll
font size
0
reset
how to read this tab
guitar tuner
edit
Autoscroll
slow
fast
+/-
esc
set tempo
stop
Author
Created by: Alexander Polovinka (Instagram: @alexplv)
alexplvcontact@gmail.com

This is my first TAB. Hope you enjoy it!
And I'm open for any corrections to improve it. 
I very like this song and I could not find any tabs or chords for this song 
on the internet for a long time.

There is a cover video on youtube which was very helpful to create this TAB.
Credits: @ningratcolony on Youtube (v=Sbd4CYT5KxY)


[Intro]

e|-----------------0-------------------------------0--------------------------|
B|-----------3-------3---3-------------------3-------3---3--------------------|
G|---------0---0-------0-------------------0---0-------0----------------------|
D|-------2-------2-----------------------2-------2----------------------------|
A|-------------------------3---2---------------------------3---2--------------|
E|--0-------------------------------0-----------------------------------------|

e|-------0---------------3p2-----------------------0--------------------------|
B|---------3-----------------3---3-----------3-------3---3--------------------|
G|-----------0-----------------0-----------0---0-------0----------------------|
D|-------------2------2------------------2-------2----------------------------|
A|--3------------3-0---------------------------------------3---2--------------|
E|----------------------------------0-----------------------------------------|


[Verse 1]

           If you can see what's shining through 
           I'd like to know just where you're looking to
e|---------------------------------------------------------------------------|
B|----3-----0---------3-----0---------0-----0---------3----3-----------------|
G|------0-----0---0-----0-----0---0-----0-----0---0-----0----0---0-----------|
D|--------2-----2---------2-----2---------2-----2---------2----2-------------|
A|--0---------------0---------------0---------------0------------------------|
E|---------------------------------------------------------------------------|

e|---------------------------------------------------------------------------|
B|----3-----3---------3-----3------------------------------------------------|
G|------0-----0---0-----0-----0---0------------------------------------------|
D|--------2-----2---------2-----2--------------------------------------------|
A|---------------------------------------------------------------------------|
E|--0--------------0---------------------------------------------------------|

           Never words I meant to say
           But everybody goes a different way
e|---------------------------------------------------------------------------|
B|----3-----0---------3-----0---------3-----3---------3----3-----------------|
G|------0-----0---0-----0-----0---0-----0-----0---0-----0----0---0-----------|
D|--------2-----2---------2-----2---------2-----2---------2----2-------------|
A|--0---------------0---------------0---------------0------------------------|
E|---------------------------------------------------------------------------|

e|---------------------------------------------------------------------------|
B|----3-----3---------3-----3------------------------------------------------|
G|------0-----0---0-----0-----0---0------------------------------------------|
D|--------2-----2---------2-----2--------------------------------------------|
A|---------------------------------------------------------------------------|
E|--0--------------0---------------------------------------------------------|


[Chorus]

          If I see only black and white
          Telling me there is something not quite right
e|------------------------0-------------------------------0------------------|
B|----3-----3-----------3---3---------3-----3-----------3---3----------------|
G|------0-----0---0---0-------0---0-----0-----0---0---0-------0---0----------|
D|--------2-----2---0-----------0---------2-----2---------------2------------|
A|--3-------------------------------0---------------2------------------------|
E|---------------------------------------------------------------------------|

    Everything will slip away I'm losing sight
e|---------------------------------------------------------------------------|
B|------3-----3-----3-----3---------3----------------------------------------|
G|----0-----0-----0-----0---------0---0--------------------------------------|
D|--------------------0-----2---2-------2-2---0------------------------------|
A|--0-----2-----3--------------------------------0---------------------------|
E|---------------------------------------------------------------------------|

          And the face that I knew before
          Still she hurts me only so much more
e|------------------------0-------------------------------0------------------|
B|----3-----3-----------3---3---------3-----3-----------3---3----------------|
G|------0-----0---0---0-------0---0-----0-----0---0---0-------0---0----------|
D|--------2-----2---0-----------0---------2-----2---------------2------------|
A|--3-------------------------------0---------------2------------------------|
E|---------------------------------------------------------------------------|
         
    Do you hear me? 'cause you always seem to blind my heart
e|---------------------------------------------------------------------------|
B|------3-----3-----3-----3---------3----------------------------------------|
G|----0-----0-----0-----0---------0---0--------------------------------------|
D|--------------------0-----2---2-------2------------------------------------|
A|--0-----2-----3------------------------------------------------------------|
E|----------------------------------------0----------------------------------|


[Verse 2]

           It's not a story with an end
           And all the pages show the time we've spent
e|---------------------------------------------------------------------------|
B|----3-----0---------3-----0---------0-----0---------3----3-----------------|
G|------0-----0---0-----0-----0---0-----0-----0---0-----0----0---0-----------|
D|--------2-----2---------2-----2---------2-----2---------2----2-------------|
A|--0---------------0---------------0---------------0------------------------|
E|---------------------------------------------------------------------------|

e|---------------------------------------------------------------------------|
B|----3-----3---------3-----3------------------------------------------------|
G|------0-----0---0-----0-----0---0------------------------------------------|
D|--------2-----2---------2-----2--------------------------------------------|
A|---------------------------------------------------------------------------|
E|--0--------------0---------------------------------------------------------|

           Moving slowly walk on by
           When someone else can't lock your love inside
e|---------------------------------------------------------------------------|
B|----3-----0---------3-----0---------3-----3---------3----3-----------------|
G|------0-----0---0-----0-----0---0-----0-----0---0-----0----0---0-----------|
D|--------2-----2---------2-----2---------2-----2---------2----2-------------|
A|--0---------------0---------------0---------------0------------------------|
E|---------------------------------------------------------------------------|

e|---------------------------------------------------------------------------|
B|----3-----3---------3-----3------------------------------------------------|
G|------0-----0---0-----0-----0---0------------------------------------------|
D|--------2-----2---------2-----2--------------------------------------------|
A|---------------------------------------------------------------------------|
E|--0--------------0---------------------------------------------------------|


[Chorus]

          When I see only black and white
          Telling me there is something not quite right
e|------------------------0-------------------------------0------------------|
B|----3-----3-----------3---3---------3-----3-----------3---3----------------|
G|------0-----0---0---0-------0---0-----0-----0---0---0-------0---0----------|
D|--------2-----2---0-----------0---------2-----2---------------2------------|
A|--3-------------------------------0---------------2------------------------|
E|---------------------------------------------------------------------------|

    Everything has slipped away I'm losing sight
e|---------------------------------------------------------------------------|
B|------3-----3-----3-----3---------3----------------------------------------|
G|----0-----0-----0-----0---------0---0--------------------------------------|
D|--------------------0-----2---2-------2-2---0------------------------------|
A|--0-----2-----3--------------------------------0---------------------------|
E|---------------------------------------------------------------------------|

          And the face that I knew before
          Still she hurts me only so much more
e|------------------------0-------------------------------0------------------|
B|----3-----3-----------3---3---------3-----3-----------3---3----------------|
G|------0-----0---0---0-------0---0-----0-----0---0---0-------0---0----------|
D|--------2-----2---0-----------0---------2-----2---------------2------------|
A|--3-------------------------------0---------------2------------------------|
E|---------------------------------------------------------------------------|

        
    Do you hear me when you turn away and close the door?
e|---------------------------------------------------------------------------|
B|------3-----3-----3-----3--------------------------------------------------|
G|----0-----0-----0-----0----------------------------------------------------|
D|--------------------0------------------------------------------------------|
A|--0-----2-----3------------------------------------------------------------|
E|---------------------------------------------------------------------------|


[Bridge]

    It seems a crime to walk on by
    When someone else can't have you're love inside
e|---------------------------------------------------------------------------|
B|----0-----0---------3-----0---------1-----1---------3-----3----------------|
G|------0-----0---0-----0-----0---0-----0-----0---0-----0-----0---0----------|
D|--------2-----2---------2-----2---------2-----2---------2-----2------------|
A|--0---------------0---------------0---------------0------------------------|
E|---------------------------------------------------------------------------|

e|---------------------------------------------------------------------------|
B|----0-----0---------0-----0---------1-----1---------3-----3----------------|
G|------0-----0---0-----0-----0---0-----0-----0---0-----0-----0---0----------|
D|--------2-----2---------2-----2---------2-----2---------2-----2------------|
A|--0---------------0---------------0---------------0------------------------|
E|---------------------------------------------------------------------------|

e|---------------------------------------------------------------------------|
B|----0-----0----------------------------------------------------------------|
G|------0-----0---0----------------------------------------------------------|
D|--------2-----2------------------------------------------------------------|
A|--0------------------------------------------------------------------------|
E|---------------------------------------------------------------------------|


[Chorus]

          If you see only black and white
          would you tell me there is something not quite right
e|------------------------0-------------------------------0------------------|
B|----3-----3-----------3---3---------3-----3-----------3---3----------------|
G|------0-----0---0---0-------0---0-----0-----0---0---0-------0---0----------|
D|--------2-----2---0-----------0---------2-----2---------------2------------|
A|--3-------------------------------0---------------2------------------------|
E|---------------------------------------------------------------------------|

    Everything has slipped away I'm losing sight
e|---------------------------------------------------------------------------|
B|------3-----3-----3-----3---------3----------------------------------------|
G|----0-----0-----0-----0---------0---0--------------------------------------|
D|--------------------0-----2---2-------2-2---0------------------------------|
A|--0-----2-----3--------------------------------0---------------------------|
E|---------------------------------------------------------------------------|

          And the face that I knew before
          Still she hurts me only so much more
e|------------------------0-------------------------------0------------------|
B|----3-----3-----------3---3---------3-----3-----------3---3----------------|
G|------0-----0---0---0-------0---0-----0-----0---0---0-------0---0----------|
D|--------2-----2---0-----------0---------2-----2---------------2------------|
A|--3-------------------------------0---------------2------------------------|
E|---------------------------------------------------------------------------|
          
    Do you hear me when you turn away and blind my heart?
e|---------------------------------------------------------------------------|
B|------3-----3-----3-----3---------3----------------------------------------|
G|----0-----0-----0-----0---------0---0--------------------------------------|
D|--------------------0-----2---2-------2------------------------------------|
A|--0-----2-----3------------------------------------------------------------|
E|----------------------------------------0----------------------------------|


[Outro]

e|------------0--------------------0------------------0----------------------|
B|---------3-----3--------------3-----3----------3---------3-----------------|
G|------0-----------0--------0-----------0----------------------0------------|
D|---------------------2--0-----------------0---------2----------------------|
A|--3--------------------------------------------0---------0-----------------|
E|--------------------------------------------------------------0------------|


[Lyrics]

If you can see what's shining through
I'd like to know just where you're looking to
Never words I meant to say
But everybody goes a different way

If I see only black and white
Telling me there is something not quite right
Everything will slip away I'm losing sight
And the face that I knew before
Still she hurts me only so much more
Do you hear me? 'cause you always seem to blind my heart

It's not a story with an end
And all the pages show the time we've spent
Moving slowly walk on by
When someone else can't lock your love inside

When I see only black and white
Telling me there is something not quite right
Everything has slipped away I'm losing sight
And the face that I knew before
Still she hurts me only so much more
Do you hear me when you turn away and close the door?

It seems a crime to walk on by
when someone else can't have you're love inside

If you see only black and white
Would you tell me there is something not quite right
Everything has slipped away I'm losing sight
And the face that I knew before
Still she hurts me only so much more
Do you hear me when you turn away and blind my heart?


************************************

| p   Pull-off

************************************

Created by: Alexander Polovinka
alexplvcontact@gmail.com

            
            
Suggest correction
Creating personal tab
Creating personal tab
You can edit any tab online and save it as your Personal.

You can edit, replace or remove any tab part or add personal notes – all changes will be seen only by you.

Personal tabs can be accessed anytime from any device, even offline.
Learn more »
Give kudos to tab author, rate the tab!
1 2 3 4 5
comments
print report bad tab
guest
You may want to rate the tab now too:
select rating
Wanna post a correction for this tab? Suggest correction