Oops, an error
Loading. Please wait.

Black Hope Shot Down tab

by Zornik
3,359 views 1 this week
3 commentsread comments
1 2 3 4 5
x 7
add to favorites
×
Save as Personal and add changes to this tab that will be seen only by you. Learn more ›
×
You can save this tab as Personal to edit and correct it or add notes. All changes will be seen only by you. Learn more »
launch autoscroll
font size
0
reset
how to read this tab
guitar tuner
edit
Autoscroll
slow
fast
+/-
esc
set tempo
stop
Author
-----------------------------------------------------------------------------
                             SONG NAME - ZORNIK
-----------------------------------------------------------------------------
Tabbed by:Den Alec
Email:alec_sterckx@hotmail.com

Ik heb op aanvraag van wat Zornik fans mijn tab geupdate en de bridge min of meer 
ik heb ook ingezien dat ze in D tuning spelen dit is je laagste snaar of de E snaar 1 hele 
naar beneden stemmen 

intro+vers
e|-----------------------------------------------------|
B|-----------------------------------------------------|
G|-----------------------------------------------------|
D|---7-77-7-7777-7-77-7-7777---------------------------|
A|---6-55-6-5555-6-55-6-5555-7-77-7-7777-7-77-7-7777---|
D|---------------------------8-77-8-7777-8-77-8-7777---|

e|------------------------------------------------------|
B|------------------------------------------------------|
G|------------------------------------------------------|
D|---101010101010101010101010-5-55-5-5555-5-55-5-5555---|
A|---9-88-9-8888-9-88-9-8888--4-33-4-3333-4-33-4-3333---|
D|------------------------------------------------------|
dit zijn powerchords(zonder de pink) van 8 maar ik krijg de 10 er niet goed op dus je
het gewoon zoals de andere chords spelen
dus: niet 1 0  maar 10
          8 8       8
je kan het ook zo spelen maar ik denk dat het zoals hierbove gespeeld moet worden
e|-----------------------------------------------------|
B|-----------------------------------------------------|
G|-----------------------------------------------------|
D|---8-77-8-7777-8-77-8-7777---------------------------|
A|---6-55-6-5555-6-55-6-5555-8-77-8-7777-8-77-8-7777---|
D|---------------------------8-77-8-7777-8-77-8-7777---|

e|-----------------------------------------------------|
B|-----------------------------------------------------|
G|-----------------------------------------------------|
D|---1110-111010-1110-111010-6-55-6-5555-6-55-6-5555---|
A|---9-88-9-8888-9-88-9-8888-4-33-4-3333-4-33-4-3333---|
D|-----------------------------------------------------|
   weer gewoon een 8 chord

chorus
e|--------------------------------------------------------------------------|
B|--------------------------------------------------------------------------|
G|---7777777777777777------------------1010101010101010-55555555-66666666---|
D|---7777777777777777-7777777777777777-1010101010101010-55555555-55555555---|
A|---5555555555555555-7777777777777777-8888888888888888-33333333-44444444---|
D|--------------------7777777777777777--------------------------------------|
                                 dit is weer een powerchord van 8
de chorus kan ook dit zijn :
e|--------------------------------------------------------------------------|
B|--------------------------------------------------------------------------|
G|---7777777777777777-----------------------------------55555555-66666666---|
D|---7777777777777777-7777777777777777-3333333333333333-55555555-55555555---|
A|---5555555555555555-7777777777777777-3333333333333333-33333333-44444444---|
D|--------------------7777777777777777-3333333333333333---------------------|
(veel maakt het niet uit)

overgang
e|----------------------------------|
B|----------------------------------|
G|-------7~-----7~-----7~-----7-7---|
D|---777----777----777----777--7----|
A|---555----555----555----555-------|
D|----------------------------------|

(synth) pre bridge
e|--------------------------------------------------------------------------|
B|--------------------------------------------------------------------------|
G|--------------------------------------------------------------------------|
D|--------------------------------------------------------------------------|
A|---5555555555555555-----------------------------------33333333-44444444---|
D|--------------------7777777777777777-3333333333333333---------------------|
de bridge heb ik niet kunnen ontcijferen

e|----------------------------------------|
B|---------------------------------4(~)---|
G|-----------------------------3-5--------|
D|---------3-5-------------3-5------------|
A|-----3-5-------3-5-0-3-5----------------|
D|---0---------0--------------------------|
de laatste keer de bovendste 4 goed benden !

je kan het ook zo doen:
e|-------------------------------------------------|
B|-------------------------------------------------|
G|------------------------------------------8(~)---|
D|-------------------------------------8-10--------|
A|-----------8-10---------0-------8-10-------------|
D|---0-10-12------0-10-12---10-12------------------|

of dit (mijn persoonlijke favoriet)
e|---------------------------------------------|
B|--------------------------------------4(~)---|
G|----------------------------------3-5--------|
D|------------------------------3-5------------|
A|-----------8-10---------0-3-5----------------|
D|---0-10-12------0-10-12----------------------|


voor verbeteringen en/of commentaar email me of plaats het bij de tab
geef deze tab ook aub sterren

| /  slide up
| \  slide down
| h  hammer-on
| p  pull-off
| ~  vibrato
| +  harmonic
| x  Mute note
=============================================================================
Suggest correction
Creating personal tab
Creating personal tab
You can edit any tab online and save it as your Personal.

You can edit, replace or remove any tab part or add personal notes – all changes will be seen only by you.

Personal tabs can be accessed anytime from any device, even offline.
Learn more »
comments
print report bad tab
3 comments total.
0 reply
White Pony 10 Apr 09, 2007 12:22 PM

Voor dat alleen maar van TV gehoord te hebben een heel goede tab. Respect!

0 reply
Den Alec 337 Apr 12, 2007 02:23 AM

bedankt en ik ben blij te melden dat jij de eerste bent die ooit commentaar gegeven hebt woehoew ! feestje !!!

0 reply
daaneel 10 May 22, 2007 08:50 AM

Ok, da bridgeke met dat snel riffke dus... Heb het ook niet echt 100% kunnen ontcijferen, maar het is ongeveer dit. Heb het getabt door naar het clipke op youtube te kijken. Als ik het in mp3 of cd ofzo had kon ik het wel trager laten afspelen zodat ik zekerder ben dat het klopt, maar ja...

Lage E-snaar moet naar D gestemt worden, noot lager dus (op 7e ipv 5e vakske moet het dan klinken zoals A-snaar los gespeeld).

e|----------------------------------------------------|
B|----------------------------------------------------|
G|----------------------------------------------------|
D|----------------------------------------------------|
A|-------------8--------------------------8------8-10-|
D|--0---10/12------0--10/12-12-12-12--10-----10-------|

Dus naar D-stemming op de lage E snaar!
Aja, de vierde keer moet ge dus op die laatste noot benden, daarna ist nog is 8 keer. Basisschema (D A F C C#), dat Alec goe had getabbed, word er dan die laatste acht keer ook twee keer mee samen gespeeld.

guest
You may want to rate the tab now too:
select rating
Wanna post a correction for this tab? Suggest correction