Oops, an error
Loading. Please wait.

You Move Me Tab

by Zornik
1,045 views 1 this week
2 commentsread comments
1 2 3 4 5
2 more votes to show rating
add to favorites
launch autoscroll
font size
0
reset
how to read this tab
guitar tuner
×
Best way to learn
"You Move Me"
Autoscroll
slow
fast
+/-
esc
set tempo
stop
Author
Artist:       Zornik
Song:         You Move Me
Album:        The Place Where You Will Find Us
Tabbed By:    Jan Van Gulck
E-Mail:       janvangulck@hotmail.com



This is a Guitar tab with some Bass lines in it. The Bass can
also be used for the second guitar! just find out the chords!


I'm sure it isn't 100% correct, but this is what I hear.
The bass tba isn't correct! That's a line a couldn't hear,
so I made one myself, and it sounds good ;)!!!





Intro + Verse 1:


Bass

repeat 2x - verse 4x

G|---------------------------------------------------------------------|
D|---------------------------------------------------------------------|
A|---------------------------------------------------------------------|
E|-1-1-1-1-1-1-1-1---1-1-1-1-1-1-1-1--3-3-3-3-3-3-3-3--0-0-0-0-0-0-0-0-|



Guitar (clean):

repeat 2x - verse 4x

     F		     F/B              C                C
e|---x------X-X------x------X-X-------0------X-X-------0------X-X------|
B|---1------X-X------0------X-X-------1------X-X-------1------X-X------|
G|---2------X-X------2------X-X-------0------X-X-------0------X-X------|
D|---3------X-X------3------X-X-------2------X-X-------2------X-X------|
A|---3------X-X------3------X-X-------3------X-X-------3------X-X------|
E|---x------X-X------x------X-X-------0------X-X-------0------X-X------|


	 -----------------------------------------------
	|Everytime you move 				|
	|There's a spark that seems to find it's way 	|
	|To everything I own				|
	|I am losing in your favorite way 		|
	|'cause you move me, yeah you move me 		|
	|And you move me 				|
	|And you move, you move, you move, you move 	|
	 -----------------------------------------------




Chorus:

Bass:

repeat 2x

G|---------------------------------------------------------------------|
D|---------------------------------------------------------------------|
A|------------------------------------3-3-3-3-3-3-3-3--3-3-3-3-3-------|
E|-1-1-1-1-1-1-1-1---3-3-3-3-3-3-3-3-----------------------------0-3-0-|




Guitar (with heavy distortion):

repeat 2x


     F		     	              C
e|---x--------------------------------x-------------------------------|
B|---x--------------------------------x-------------------------------|
G|---2--------------------------------9-------------------------------|
D|---3-------------------------------10-------------------------------|
A|---3-------------------------------10-------------------------------|
E|---1--------------------------------8-------------------------------|



	 -------------------------------
	|You are everything I have 	|
	|Yeah you are everything I have |
	 -------------------------------



Verse 2:

Bass

repeat 4x

G|---------------------------------------------------------------------|
D|---------------------------------------------------------------------|
A|---------------------------------------------------------------------|
E|-1-1-1-1-1-1-1-1---1-1-1-1-1-1-1-1--3-3-3-3-3-3-3-3--0-0-0-0-0-0-0-0-|



Guitar (clean):

repeat 4x

     F		     F/B              C                C
e|---x------X-X------x------X-X-------0------X-X-------0------X-X------|
B|---1------X-X------0------X-X-------1------X-X-------1------X-X------|
G|---2------X-X------2------X-X-------0------X-X-------0------X-X------|
D|---3------X-X------3------X-X-------2------X-X-------2------X-X------|
A|---3------X-X------3------X-X-------3------X-X-------3------X-X------|
E|---x------X-X------x------X-X-------0------X-X-------0------X-X------|




	 -----------------------------------------------
	|The secrets that we share 			|
	|Aren't always so important that we 	 	|
	|Have to disagree 				|
	|About lots of things we used to do  		|
	|'cause you move me, yeah you move me 		|
	|And you move me 				|
	|And you move, you move, you move, you move 	|
	 -----------------------------------------------




Chorus:

Bass:

repeat 2x

G|---------------------------------------------------------------------|
D|---------------------------------------------------------------------|
A|------------------------------------3-3-3-3-3-3-3-3--3-3-3-3-3-------|
E|-1-1-1-1-1-1-1-1---3-3-3-3-3-3-3-3-----------------------------0-3-0-|




Guitar (with heavy distortion):

repeat 2x


     F		     	              C
e|---x--------------------------------x-------------------------------|
B|---x--------------------------------x-------------------------------|
G|---2--------------------------------9-------------------------------|
D|---3-------------------------------10-------------------------------|
A|---3-------------------------------10-------------------------------|
E|---1--------------------------------8-------------------------------|




	 -------------------------------
	|You are everything I have 	|
	|Yeah you are everything I have |
	 -------------------------------




Bridge:

Bass:


G|----------------------------------------------------------|
D|----------------------------------------------------------|
A|----------------------------------- 3-  x8  --------------|
E|-- 1-  x16    5-  x16    2-  x16    -----      3-  x16    |



Guitar (with distortion):

repeat 2x


     F	        A        F#min	      C          A
e|---1----------5----------2----------8----------3----------|
B|---1----------5----------2----------8----------3----------|
G|---2----------6----------2----------9----------4----------|
D|---3----------7----------4---------10----------5----------|
A|---3----------7----------4---------10----------5----------|
E|---1----------5----------2----------8----------3----------|


	 -----------------------------------------------
	|Hey there switch your mind of			|
	|And untie me 				 	|
	|You move me 'round the day			|
	|For a while 					|
	|I'm not lost, I am saved now 			|
	|You untied me 					|
	|You move me 'round the day 		 	|
	 -----------------------------------------------




Verse 3:

Bass

repeat 2x - verse 4x
Suggest correction
Give kudos to tab author, rate the tab!
1 2 3 4 5
comments
print report bad tab
2 comments total.
0 reply
subshadow 42 Oct 12, 2007 09:30 AM

sorry but this really is a bad tab

0 reply
subshadow 42 Oct 12, 2007 09:30 AM

this is just a bad tab

guest
You may want to rate the tab now too:
select rating
Wanna post a correction for this tab? Suggest correction