Oops, an error
Loading. Please wait.

We Should Be Swimming Tab

1,175 views 3 this week
no commentswrite comment
1 2 3 4 5
excellent!
x 1
add to favorites
launch autoscroll
font size
0
reset
how to read this tab
guitar tuner
Tab Pro tools
  • play this tab
  • loop segment
  • change instrument
  • show fretboard
  • metronome
Autoscroll
slow
fast
+/-
esc
set tempo
stop
Contributor
Based on an acoustic performance for a Dutch radio-station( http://www.youtube.com/
watch?v=M-y3yN52zEU ), also saw them performing live. First time I'm tabbing a
song, it sounds good to me this way.. Feel free to correct anything that sounds
off :) Also couldn't find the right lyrics, so it is quite possible that they are
a tad bit off. (I'm certain they are off).

Verse 2x
    G#m                  E
e---------4---------4---------0----------0-|
B---------4---------4---------0----------0-|
G-------4---------4---------1----------1---|
D-----6---------6---------2----------2-----|
A---6---------6---------2----------2-------|
E-4---------4---------0----------0---------|

   B                    C#m
e---------7----------7---------4----------4-|
B---------7----------7-------5-5--------5-5-|
G-------8----------8-------6----------6-----|
D-----9----------9-------6----------6-------|
A---9----------9-------4----------4---------|
E-7----------7------------------------------|

Chorus:
    E                   G#m                 C#m
e---------0----------0----------4---------4---------4---------4-|
B---------0----------0----------4---------4-------5-5-------5-5-|
G-------1----------1----------4---------4-------6---------6-----|
D-----2----------2----------6---------6-------6----------6------|
A---2----------2----------6---------6-------4----------4--------|
E-0----------0---------4---------4------------------------------|

    E                   G#m                 B                     C#m
e---------0----------0----------4---------4---------7---------7---------4---------4-|
B---------0----------0----------4---------4---------7---------7-------5-5-------5-5-|
G-------1----------1----------4---------4---------8---------8-------6---------6-----|
D-----2----------2----------6---------6---------9---------9-------6----------6------|
A---2----------2----------6---------6---------9---------9-------4----------4--------|
E-0----------0---------4---------4----------7---------7-----------------------------|



G#m
oh me oh my
E
how large a desire
B
to run from the streets in only our sheets
C#m
kicking our shoes off and playing in the heat
G#m
I would watch a bead of sweat drip down
E
tracing the curves of yourself frown
B                        C#m
forward for win or forward for war


E
Because we should be swimming
G#m
Going long into the night as if we were different
C#m
We Should be swimming
E
Oh we should be swimming
G#m
Going long into the night as if we were different
B                       C#m
We should be swimming

G#m
Oh me oh my
E
i'm feverish with this life
B
stumbling through hoops tripping over these loops
C#m
pushed by the pen and forced by the boots
G#m
so I look to you for some release
E
touched things aside in such a peace
B                            C#m
boozing your hand so hard i squeeze

E
Because we should be swimming
G#m
Going long into the night as if we were different
C#m
We Should be swimming
E
Oh we should be swimming
G#m
Going long into the night as if we were different
B                     C#m
We should be swimming

(In the bridge he only plays the root of the chords I believe, you could play
anything that feels right :)
G#m
Hold your breath
C#m
float down to this sea bed
E                            
then we'll see how long we can sleep
(x4)

(from this point on everything is strummed)
E - B - C#m 2x

E
Because we should be swimming
G#m
Going on into the night as if we were different
C#m
We Should be swimming
E
Oh we should be swimming
G#m
Going on into the night as if we were different
B                       C#m      G#m
We should be swimming


Hope you enjoyed it :)
-Wumbo7
comments
We did not receive enough feedback on this tab! Please rate:
print report bad tab
1 2 3 4 5
I want to post or [tab]
guest
You may want to rate the tab now too:
select rating
Please do not post tabs as comments. Select "correction" instead!