Oops, an error
Loading. Please wait.

Abre Los Ojos bass

version 1
version 1

Whole song

121 views 3 this week
no commentswrite comment
1 2 3 4 5
3 more votes to show rating
add to favorites
×
Save as Personal and add changes to this tab that will be seen only by you. Learn more ›
×
You can save this tab as Personal to edit and correct it or add notes. All changes will be seen only by you. Learn more »
launch autoscroll
font size
0
reset
guitar tuner
edit
Autoscroll
slow
fast
+/-
esc
set tempo
stop
Abre los ojos - Zurdok
por Largallagher

*=Tocas rápido las notas señaladas con el asterisco.
(1)=Solo llegas a este traste, pero no tocas la nota.

Intro: (x4)

G--------------|
D--------------|
A-0-0---0-3-0--|
E-----0--------|

Versos:

'Abre la ventana y...'
G--------------------------------------------|
D--------------------------------------------|
A------------2-2------------3-----------2-2--|
E--5-5--1-1-------0-0-0-3-5---5-5--1-1-------|

'Abre los ojos bien...'
G---------------------------------------|
D---------------------------------------|
A--3-5----------------1s5--5-5*5-5-5----|
E------5-5--5-5*5-5s(1)--------------5--|

Al termino del segundo verso haces esto:

G-------------|
D-------------|
A-------------|
E--3--4--5-5--|
           |
           |
   |-------| 
   |
Coro:
   |
G------------------------------------------|
D------------------------------------------|
A-------7-7-----------s5-5-5-5-0-3-3-3-3-0-|
E--5-5-------1-1-1-1-0---------------------|

cont.
G--------------------------------------|
D--------------------------------------|
A-----------5-5-5-5-0------------------|
E-3-3-3-3-0-----------3*3-x-x-4*4-x-x--|

cont.
G------------------------------------------|
D------------------------------------------|
A-------7-7-----------s5-5-5-5-0-3-3-3-3-0-|
E--5-5-------1-1-1-1-0---------------------|

cont.
G------------------------------------|
D------------------------------------|
A-----------7-x-x-7-x-x-7-x-x-7-x-x--|
E-3-3-3-3-0--------------------------|

Intro: (x2)

Solo:

G----------------------------|
D----------------------------|
A----------2--3-5---------2--|
E--5---1----------5---1------|

cont.
G------------------------------------|
D------------------------------------|
A--3-5----------------s5--5-5*5-5-5--|
E------5-5--5-5*5-5s(1)--------------|

Ahora repites el solo y continuas con la misma
figura despues del solo...solo que le agregas
el final de cada 2do. verso como te indico casi
al principio.

Coro: (Lo tocas igual que arriba)

Final: 

G--------------------------------------------------|
D--------------------------------------------------|
A--7-x-x-(x13)-7-x-x-------------------------------|
E--------------------7-x-x-7-x-x-8-x-x-8-x-x-1-x-x-|

cont.
G--------------------------------------------|
D--------------------------------------------|
A-------5-x-x-5-x-x-3-x-x-3-x-x-5-x-x-5-x-x--|
E-1-x-x--------------------------------------|

cont.
G-------------------|
D-------------------|
A-------------------|
E--3-3-x-x-4-4-x-x--|

cont.
G--------------------------------------------|
D--------------------------------------------|
A--7-x-x-7-x-x-------------------------------|
E--------------7-x-x-7-x-x-8-x-x-8-x-x-1-x-x-|

cont.
G--------------------------------------|
D--------------------------------------|
A-5-x-x-5-x-x-3-x-x-3-x-x-5-x-x-5-x-x--|
E--------------------------------------|

cont.
G---------------------|
D---------------------|
A------------------7--|
E--3-3-x-x-4-4-x-x----|

Muy larga pero vale la pena...no es el tab exacto..
pero suena muy bien en grupo y junto con el cd.

Dudas, preguntas, critcas y comentarios...a mi mail.
Suggest correction
Creating personal tab
Creating personal tab
You can edit any tab online and save it as your Personal.

You can edit, replace or remove any tab part or add personal notes – all changes will be seen only by you.

Personal tabs can be accessed anytime from any device, even offline.
Learn more »
Give kudos to tab author, rate the tab!
1 2 3 4 5
comments
print report bad tab
guest
Wanna post a correction for this tab? Suggest correction