Oops, an error
Loading. Please wait.

Abre Los Ojos tab

version 4
version 4

Whole song

123 views 1 this week
no commentswrite comment
1 2 3 4 5
3 more votes to show rating
add to favorites
×
Save as Personal and add changes to this tab that will be seen only by you. Learn more ›
×
You can save this tab as Personal to edit and correct it or add notes. All changes will be seen only by you. Learn more »
launch autoscroll
font size
0
reset
how to read this tab
guitar tuner
edit
Autoscroll
slow
fast
+/-
esc
set tempo
stop
Del disco: Hombre sintetizador
Tab por: Aldher Alejandro Ruelas Ramírez
Gdl. Jal.

Esta es una de las canciones clasicas de Zurdok, pero tambien una 
de las más dificiles de tocar, por los efectos que tiene la guitarra, 
y algunos acordes raros. Creo que es muy correcta (no 100%), he 
observado como la toca Zurdok en vivo en dos conciertos a los que he asistido 
y creo que todos los acordes  estan exactos. Respecto a los efectos 
no les garantizo nada es mejor que ustedes hagan sus propios experimentos 
de mezclas de efectos, pero a mi me gusto como sonaba así... disfrutenlo.

Afinacion estandar: E A D G B e

Acordes:     E  A  D  G  B  E

Am           0  0  2  2  1  0             
A5           5  7  7  X  X  X
F            X  3  3  2  1  X
F5           1  3  3  X  X  X
B7           X  2  1  2  0  2
E            0  2  2  1  0  0
E?           X  7  6  9  X  0
E/G#         4  2  X  4  5  X
C5           X  3  5  5  X  X
D5           X  5  7  7  X  X
G5           3  5  5  X  X  X
G#5          4  6  6  X  X  X


Intro Riff:

GUITARRA 1: (Con un poco de distorsión, y delay)
e-----------------0--------|
B----1------------1--1-----|
G----2---------------2-----|
D--2-----------------------|
A--0------0-3-0------------|
E-------0---------------0--| (Intro riff x 4)

fin de intro riff: (Con distorsión y delay....hasta desvanecerse)
e------------|
B------------|
G--5////2----|
D------------|
A------------|
E------------|

GUITARRA 2: (limpia y durante el fin de intro riff) 
e--------------------------------------|
B--1-1-1-1--0-0-0-0--3-3--3--3-3--1-1--|
G--2-2-2-2--2-2-2-2--2-2--2--2-2--2-2--|
D--2-2-2-2--2-2-2-2--2-2--2--2-2--2-2--|
A--0-0-0-0--0-0-0-0--0-0--0--0-0--0-0--|
E--------------------------------------|


VERSOS:
Guitarra 1 y 2 limpias, apagando las cuerdas con la mano, 
(quiza con un poco de fedback)

 Am          F            B7     E
 Abre la ventana y ve la luz del sol,
 Am          F        B7 
 abre la ventana y mirate...
 (Distorsion)
 C5       D5     F5 
 Abre los ojos bien...
                 D5     Am 
 Abre los ojos bien...

  Am          F              B7   E
 Salte de la casa y mira al re-dedor,
  Am          F           B7 
 salte de la casa y buscame...
 (Distorsion)
 C5       D5     F5
 Abre los ojos bien...
                D5      G5   G#5 
 Abre los ojos fijate bien...


CORO: (Distorsion y delay)
A5      E/G#  F5     D5       C5
Esta obscuridad te puede ahogar,
      G5     D5   E  G5  
te quiere matar...
A5      E/G#  F5     D5       C5
Esta obscuridad te puede ahogar
      G5       E? 
te quiere olvidar...

Intro riff x2

fill 1: (Con slide, distorsion y delay)

guitarra 1:

e--------------------------|
B--------------------------|
G-/9-9-9/10-10\9-9\8-------|  
D--------------------------|
A--------------------------|
E--------------------------|

fill 2: (Con slide, distorsion y delay)  
e--------------------------|
B------10-8----------------|
G-/9-9-------9b\8----------|  
D--------------------------|
A--------------------------|
E--------------------------|

INTERLUDIO:

fill 1 (La guitarra 2 y la bateria no suenan, solo el bajo y 
        la guitarra que toca este fill)

 C5 D5 (Se tocan con distorsion y digital delay con mucho efecto 
        de osilación, igual en la parte cantada siguiente)

fill 2 (La guitarra 2 y la bateria no suenan, solo el bajo y 
        la guitarra que toca este fill)

 C5       D5     F5 
 Abre los ojos bien,
                D5
 abre los ojos bien...


fill 1 (La guitarra 2 y la bateria no suenan, solo el bajo y 
        la guitarra que toca este fill)

  C5 D5 (Se tocan con distorsion y digital delay con mucho efecto 
         de osilación, igual en la parte cantada siguiente)

fill 2 (La guitarra 2 y la bateria no suenan, solo el bajo y 
        la guitarra que toca este fill)

 C5       D5     F5 
 Abre los ojos bien,
               D5      G5   G#5
 abre los ojos fijate bien...


CORO: (Distorsion y delay)
A5      E/G#  F5     D5       C5
Esta obscuridad te puede ahogar,
      G5     D5   E  G5  
te quiere matar...
A5      E/G#  F5     D5       C5
Esta obscuridad te puede ahogar
      G5       E? (Se alarga mas el acorde y se le pone aparte phasher)
te quiere olvidar...

SOLO: (Se acompaña la otra guitarra con los acordes del coro pero 
además con phasher)

guitarra 1:
(Distorsion, slide y delay)
e-------------------------------------------|
B---------------------------5---------------|
G--/9-9\4-4-5--5-4--------4---7-7\----------|
D------------------4--5/7----------3-3\2--5-|
A-------------------------------------------|
E-------------------------------------------|

e-----------------------------------------------|
B---------------------------5-------------------|
G--/9-9\4-4-5--5-4--------4---7-7\-----------/9-|
D------------------4--5/7----------3-3\2--5-----|
A-----------------------------------------------|
E-----------------------------------------------|

Espero que entiendan el tab, lo hice lo más claro posible, 
y lo mas exacto tambien... 
cualquier duda o aclaracion escriban a 
blackblinder@

            
            
Suggest correction
Creating personal tab
Creating personal tab
You can edit any tab online and save it as your Personal.

You can edit, replace or remove any tab part or add personal notes – all changes will be seen only by you.

Personal tabs can be accessed anytime from any device, even offline.
Learn more »
Give kudos to tab author, rate the tab!
1 2 3 4 5
comments
print report bad tab
guest
Wanna post a correction for this tab? Suggest correction