Oops, an error
Loading. Please wait.

Bien O Mal tab

39 views 1 this week
no commentswrite comment
1 2 3 4 5
3 more votes to show rating
add to favorites
×
Save as Personal and add changes to this tab that will be seen only by you. Learn more ›
×
You can save this tab as Personal to edit and correct it or add notes. All changes will be seen only by you. Learn more »
launch autoscroll
font size
0
reset
how to read this tab
guitar tuner
edit
Autoscroll
slow
fast
+/-
esc
set tempo
stop
Disfruten la tablatura
Zurdok es de las mejores bandas mexicanas que 
haya existido


       ACORDES

      Bm        (x24432)
      Bm5       (799777)
      D        (xx0232)
      D5        (x57775)
      G        (320033)
      G5        (355433)
      E5        (X79997)
      E         (022100)
      A        (x02220)
      A5        (577655)
      F#        (244322)
      C#        (x46664)
      G#/Abdim  (4567xx)
      A#/Bbdim  (6789xx)


Intro

      Bm       D5        G      E
e | ---2-2-2-2----5-5-0---3-3---0-0------------- |
B | ---3-3-3-3----7-7-0---0-0---0-0------------- |
G | ---4-4-4-4----7-7-0---0-0---1-1------------- |
D | ---4-4-4-4----7-7-0---0-0---2-2------------- |  x2
A | ---2-2-2-2----5-5-0---2-2---2-2------------- |
E | ----------------------3-3---0-0------------- |


1ER VERSO

Bm
Dando vueltas el día de ayer
G                      E
   hasta el final lo pensé muy bien
A                  F#        
   siento que esta vez tengo 
        Bm      D5      G      E     Bm       D5      G     E
    razón                  no se por que                      
e | ---2-2-2-2--5-5-0---3-3---0-0-----2-2-2-2--5-5-0---3-3---0-0-|
B | ---3-3-3-3--7-7-0---0-0---0-0-----3-3-3-3--7-7-0---0-0---0-0-|
G | ---4-4-4-4--7-7-0---0-0---1-1-----4-4-4-4--7-7-0---0-0---1-1-|
D | ---4-4-4-4--7-7-0---0-0---2-2-----4-4-4-4--7-7-0---0-0---2-2-|
A | ---2-2-2-2--5-5-0---2-2---2-2-----2-2-2-2--5-5-0---2-2---2-2-|
E | --------------------3-3---0-0----------------------3-3---0-0-|


CORO

               Bm  A    G5-A5-Bm5   A5-Bm5-C#
         pero algo va a pasaaaar
      e | ---2-2-0-0---------- |
      B | ---3-3-2-2---------- |
      G | ---4-4-2-2---------- |
      D | ---4-4-2-2---------- |
      A | ---2-2-0-0---------- |
      E | -------------------- |

D5      A5    F#       G5
léntamente se va a acabar
 D5       Bm   A5     G5-A5-Bm5   A5-Bm5-C# 
   para bien o para mal

D5      A5     F#     G5
léntamente se va acabar
 D5       Bm   A      G5-A5-Bm5   A5-Bm5-C#     E5-D5-E5    D5-E5-D5
   para bien o para mal            tiene    que    pasar


  Se repite INTRO

      Bm       D5        G      E
e | ---2-2-2-2----5-5-0---3-3---0-0------------- |
B | ---3-3-3-3----7-7-0---0-0---0-0------------- |
G | ---4-4-4-4----7-7-0---0-0---1-1------------- |
D | ---4-4-4-4----7-7-0---0-0---2-2------------- | x2
A | ---2-2-2-2----5-5-0---2-2---2-2------------- |
E | ----------------------3-3---0-0------------- |

 
2DO VERSO

Bm             F#
 observando con cláridad
G5                  G#/Abdim
  con el miedo de poder fallar
A5            A#/Bbdim    
  o mejor cambiar de 
        Bm      D5      G     E       Bm       D5      G     E
decisión                  no se por que                      
e | ---2-2-2-2--5-5-0---3-3---0-0-----2-2-2-2--5-5-0---3-3---0-0-|
B | ---3-3-3-3--7-7-0---0-0---0-0-----3-3-3-3--7-7-0---0-0---0-0-|
G | ---4-4-4-4--7-7-0---0-0---1-1-----4-4-4-4--7-7-0---0-0---1-1-|
D | ---4-4-4-4--7-7-0---0-0---2-2-----4-4-4-4--7-7-0---0-0---2-2-|
A | ---2-2-2-2--5-5-0---2-2---2-2-----2-2-2-2--5-5-0---2-2---2-2-|
E | --------------------3-3---0-0----------------------3-3---0-0-|


CORO

               Bm  A    G5-A5-Bm5   A5-Bm5-C#
         pero algo va a pasaaaar
      e | ---2-2-0-0---------- |
      B | ---3-3-2-2---------- |
      G | ---4-4-2-2---------- |
      D | ---4-4-2-2---------- |
      A | ---2-2-0-0---------- |
      E | -------------------- |

D5      A5    F#       G5
léntamente se va a acabar
 D5       Bm   A5     G5-A5-Bm5   A5-Bm5-C# 
   para bien o para mal

D5      A5     F#     G5
léntamente se va acabar
 D5       Bm   A5     G5-A5-Bm5   A5-Bm5-C#     E5-D5-E5    D5-E5-D5
   para bien o para mal            tiene    que    pasar


BRIDGE

G                 E                   G             E
  y tal vez nada va a cambiar  si te vas   (en otra ocasión)
G                 E                 G                  E
  Y tal vez nada va a pasar  si te vas       (en otra dirección)


CORO

        Bm    A     G5-A5-Bm5   A5-Bm5-C#
   o en otra situación
D5      A5    F#       G5
léntamente se va a acabar
 D5       Bm   A5     G5-A5-Bm5   A5-Bm5-C# 
   para bien o para mal

D5      A5     F#     G5
léntamente se va acabar
 D5       Bm   A5     G5-A5-Bm5   A5-Bm5-C#     E5-D5-E5    D5-E5-D5
   para bien o para mal            tiene    que    pasar


OUTRO

 El final es con piano con notas variadas de los acordes  Bm  G  y E
 toca mucho los  tonos séptimos.


   Cualquier cosa sobre la tablatura o comentar sobre música:
   
        cosmo_jav@

Asunto:  atame

            
            
Suggest correction
Creating personal tab
Creating personal tab
You can edit any tab online and save it as your Personal.

You can edit, replace or remove any tab part or add personal notes – all changes will be seen only by you.

Personal tabs can be accessed anytime from any device, even offline.
Learn more »
Give kudos to tab author, rate the tab!
1 2 3 4 5
comments
print report bad tab
guest
Wanna post a correction for this tab? Suggest correction