Oops, an error
Loading. Please wait.

De Llegar Al Final tab

8 views 1 this week
no commentswrite comment
1 2 3 4 5
3 more votes to show rating
add to favorites
×
Save as Personal and add changes to this tab that will be seen only by you. Learn more ›
×
You can save this tab as Personal to edit and correct it or add notes. All changes will be seen only by you. Learn more »
launch autoscroll
font size
0
reset
how to read this tab
guitar tuner
edit
Autoscroll
slow
fast
+/-
esc
set tempo
stop
Intro
 Em                                                         2x
e-----------------------------------------------------------------|
b-----------------------------------------------------------------|
g-----------------------------------------------------------------|
d--------2--2----------2-2--2-------2-2--2-------2-2-2-2-2-2-2----|
a------------------------------------------------3-3-3-3-3-3-3----|
E---0-0-------0-0-0-0---------0-0-0---------0-0--0-0-0-0-0-0-0----|
se hacen variaciones con esas pisadas

Verso
    Sal a enseñar la humanidad esta esperando la verdad
    El poder del convencer es un vicio es dualidad
                           es un vicio es dualidad
e-----------------------------------------------------------------|
b-----------------------------------------------------------------|
g-----------------------------------------------------------------|
d--------2--2----------2-2--2-------2-2--2-------2-2-2-2-2-2-2----|
a------------------------------------------------3-3-3-3-3-3-3----|
E---0-0-------0-0-0-0---------0-0-0---------0-0--0-0-0-0-0-0-0----|
   
e-----------------------------------------------------------------|
b-----------------------------------------------------------------|
g-----------------------------------------------------------------|
d--------2--2----------2-2--2-------2-2--2-------2-2-2-2-2-2-2----|
a------------------------------------------------3-3-3-3-3-3-3----|
E---0-0-------0-0-0-0---------0-0-0---------0-0--0-0-0-0-0-0-0----|
    Libertad de cambiar tu destino al avanzar 
    Entender    que     caer     es           dificl de evitar......                
e-----------------------------------------------------------------|
b-----------------------------------------------------------------|
g-----------------------------------------------------------------|
d--------2--2----------2-2--2-------2-2--2-------2-2-2-2-2-2-2----|
a------------------------------------------------3-3-3-3-3-3-3----|
E---0-0-------0-0-0-0---------0-0-0---------0-0--0-0-0-0-0-0-0----|
                         ........es dificl de evitar         
e--------------------------------------------------------------
b--------------------------------------------------------------
g--------------------------------------------------------------
d-------------------------------5-5-5-5-5-5-5------------------
a--------7-7-7-7-7-7-7-7-7------3-3-3-3-3-3-3------------------
E--------0-0-0-0-0-0-0-0-0-------------------------------------

se repite el primer verso

y al terminar se hace esto

e-----------------------------------------------------------------|
b-----------------------------------------------------------------|
g-----------------------------------------------------------------|
d--------2--2----------2-2--2-------2-2--2------------------------|
a-----------------------------------------------------------------|
E---0-0-------0-0-0-0---------0-0-0-------------------------------|
se varia mucho con esto luego se hace silencio y se deja el feedback de la guitarra

Esto que sigue se puede hacer con disto asi lo hace Zurdok en vivo
         Estoy llegando al final
         y ya no puedo frenar
         presiento que algo va a pasar
         
e--------------------------------------------------------------|
b--------------------------------------------------------------|
g--------------------------------------------------------------|
d--------2------------------------------5----------------------|
a--------0------------------------------5----------------------|
E--------0------------------------------3----------------------|
         y que no va a acabar
e--------------------------------------------------------------------|
b--------------------------------------------------------------------|
g--------------------------------------------------------------------|
d--------2-------------------------------2--2-2--------2-2-2---------|
a--------0-----------------------------------------------------------|
E--------0-------------------------0-00-----------0-0----------------|
    
se sigue jugando con esto y se pueden hacer ruidos raros con la guitarra tambien

e-----------------------------------------------------------------|
b-----------------------------------------------------------------|
g-----------------------------------------------------------------|
d--------2--2----------2-2--2-------2-2--2-------2-2-2-2-2-2-2----|
a------------------------------------------------3-3-3-3-3-3-3----|
E---0-0-------0-0-0-0---------0-0-0---------0-0--0-0-0-0-0-0-0----|

e-----------------------------------------------------------------|
b-----------------------------------------------------------------|
g-----------------------------------------------------------------|
d--------2--2----------2-2--2-------2-2--2-------2-2-2-2-2-2-2----|
a------------------------------------------------3-3-3-3-3-3-3----|
E---0-0-------0-0-0-0---------0-0-0---------0-0--0-0-0-0-0-0-0----|

e------------------------------------------------------4------4------4-------4--4--4--4-----|
b------------------------------------------------------0------0------0-------0--0--0--0-----|
g------------------------------------------------------4------4------4-------4--4--4--4-----|
d--------2--2----------2-2--2-------2-2--2--------------------------------------------------|
a-------------------------------------------------------------------------------------------|
E---0-0-------0-0-0-0---------0-0-0----------------0-0----0-0----0-0-----0-0----------------|

Fin
Ahi a ver si le agarran la onda...
Tabule esta rola porke la toco con la banda y se oye muy chida 
ya con la bateria, distos y claro el bajo
Saludos Chava;Juan;Ñero
Suggest correction
Creating personal tab
Creating personal tab
You can edit any tab online and save it as your Personal.

You can edit, replace or remove any tab part or add personal notes – all changes will be seen only by you.

Personal tabs can be accessed anytime from any device, even offline.
Learn more »
Give kudos to tab author, rate the tab!
1 2 3 4 5
comments
print report bad tab
guest
Wanna post a correction for this tab? Suggest correction