Oops, an error
Loading. Please wait.

El Tiempo Se Va tab

version 3
version 3

Whole song

11 views 1 this week
no commentswrite comment
1 2 3 4 5
3 more votes to show rating
add to favorites
×
Save as Personal and add changes to this tab that will be seen only by you. Learn more ›
×
You can save this tab as Personal to edit and correct it or add notes. All changes will be seen only by you. Learn more »
launch autoscroll
font size
0
reset
how to read this tab
guitar tuner
edit
Autoscroll
slow
fast
+/-
esc
set tempo
stop
Este es un super rolón del disco Hombre Sintetizador
Un saludo para Paloma, Ricardo, Fesh, Rocío, Momo, Gibrán, Yazmín y a toda la 
raza del Cobach reforma en Hermosillo


Guitarra 1: Drop E, sin distorción
Guitarra 2: 6ta cuerda en Re, con distorción


Intro

En la parte superior se encuentra el acompañamiento

     Bm           Em     G  A        D
E-|--------------------------------------------|-
B-|--------------------------------------------|-
G-|--------------------------------------------|-
D-|---------7--4-4/6~----5~--------------------|-
A-|--/5~--------------------4~---4/7-7~---9~---|-
D-|--------------------------------------------|-

1er VERSO
   
Guitarra 1

Bm              Em
  He pasado por tanto lugar
    G     A    D
  difícil recordar
Bm               Em
  Es lo mismo lo dije una vez
       G       A     D
  no importa a donde vas

BRIDGE

Guitarra 2

      Salí luego me....
E-|------------------------------|-
B-|------------------------------|-
G-|------------------5--5-5-5-5--|-
D-|--0--------0------5--5-5-5-5--|-
A-|--0--------0------3--3-3-3-3--|-
D-|--0--------0------------------|-
                Casi me quedo solo
E-|-----------------------------------------------------------------|-
B-|-----------------------------------------------------------------|-
G-|-----------------------------------------------------------------|-
D-|--5-5-5-5-5-5-5-5-5-5-5-5-5-5-5-5-5-5-5-5-5-5-5/7-7-x-8---8-8-8--|-
A-|--5-5-5-5-5-5-5-5-5-5-5-5-5-5-5-5-5-5-5-5-5-5-5/7-7-x-8---8-8-8--|-
D-|--5-5-5-5-5-5-5-5-5-5-5-5-5-5-5-5-5-5-5-5-5-5-5/7-7-x-8---8-8-8--|-

CORO
Guitarra 2
          El tiempo se va.....
E-|---------------------------------|-
B-|---------------------------------|-
G-|---------------------------------|-
D-|--0-2-3---5-5-5-5-3-3-3-7-7-7-7--|-   
A-|--0-2-3---5-5-5-5-3-3-3-7-7-7-7--|-
D-|--0-2-3---5-5-5-5-3-3-3-7-7-7-7--|-
   Se repite 4 veces

LUEGO

Guitarra 2 (sin acompañamiento)

E-|--------------------------------------------|-
B-|--------------------------------------------|-
G-|--------------------------------------------|-
D-|---------7--4-4/6~----5~--------------------|-
A-|--/5~--------------------4~---4/7-7~---9~---|-
D-|--------------------------------------------|-

2do VERSO (Se toca el intro consecutivamente)
Guitarra 1 y 2

Bm               Em
  El momento que ya terminó
    G    A      D
  camina hacia atrás
Bm            Em
  Es lo mismo lo dije una vez
     G        A   D
  lo vuelvo a repetir

BRIDGE

Guitarra 2

      Salí luego me....
E-|------------------------------|-
B-|------------------------------|-
G-|------------------5--5-5-5-5--|-
D-|--0--------0------5--5-5-5-5--|-
A-|--0--------0------3--3-3-3-3--|-
D-|--0--------0------------------|-
                Casi me quedo solo
E-|-----------------------------------------------------------------|-
B-|-----------------------------------------------------------------|-
G-|-----------------------------------------------------------------|-
D-|--5-5-5-5-5-5-5-5-5-5-5-5-5-5-5-5-5-5-5-5-5-5-5/7-7-x-8---8-8-8--|-
A-|--5-5-5-5-5-5-5-5-5-5-5-5-5-5-5-5-5-5-5-5-5-5-5/7-7-x-8---8-8-8--|-
D-|--5-5-5-5-5-5-5-5-5-5-5-5-5-5-5-5-5-5-5-5-5-5-5/7-7-x-8---8-8-8--|-

CORO
Guitarra 2
          El tiempo se va.....
E-|---------------------------------|-
B-|---------------------------------|-
G-|---------------------------------|-
D-|--0-2-3---5-5-5-5-3-3-3-7-7-7-7--|-   
A-|--0-2-3---5-5-5-5-3-3-3-7-7-7-7--|-
D-|--0-2-3---5-5-5-5-3-3-3-7-7-7-7--|-
    Se repite 5 veces y luego....

FINAL
E-|---------------------------------|-
B-|---------------------------------|-
G-|---------------------------------|-
D-|--0-2-3---5-5-5-5-3-3-3--12-11~--|-   
A-|--0-2-3---5-5-5-5-3-3-3----------|-
D-|--0-2-3---5-5-5-5-3-3-3----------|-

            
            
Suggest correction
Creating personal tab
Creating personal tab
You can edit any tab online and save it as your Personal.

You can edit, replace or remove any tab part or add personal notes – all changes will be seen only by you.

Personal tabs can be accessed anytime from any device, even offline.
Learn more »
Give kudos to tab author, rate the tab!
1 2 3 4 5
comments
print report bad tab
guest
Wanna post a correction for this tab? Suggest correction