Oops, an error
Loading. Please wait.

Espacio tab

60 views 1 this week
no commentswrite comment
1 2 3 4 5
3 more votes to show rating
add to favorites
×
Save as Personal and add changes to this tab that will be seen only by you. Learn more ›
×
You can save this tab as Personal to edit and correct it or add notes. All changes will be seen only by you. Learn more »
launch autoscroll
font size
0
reset
how to read this tab
guitar tuner
edit
Autoscroll
slow
fast
+/-
esc
set tempo
stop
intro:     

                                x2
e---------------------------------||------
B---------------------------------||------
G--4-4-4-4-------7-7--------------||--4~--
D--4-4-4-4-------7-7-----3-3-3----||--4~--
A--2-2-2-2-0-2---5-5-0---3-3-3----||--2~--
E------------------------1-1-1-0--||------

verso:   

Espacio angosto es..... mi lugar........
Camino asi el frente sin mirar.........hacia atras....sin mirar atras
                                                                x2
e-----------------------------------------------------------------
B-----------------------------------------------------------------
G----9-9-~--------5~--------4-4-x-4-4-4-x-4-4-4-x-4-4-4-x-4-5~----
D----9-9-~---3~---5~--------4-4-x-4-4-4-x-4-4-4-x-4-4-4-x-4-5~----
A----7-7-~---3~---3~--------2-2-x-2-2-2-x-2-2-2-x-2-2-2-x-2-3~----
E------------1~--------------------------------------------------

        Puedo Cambiar......              El tiempo...........
e-----------------------------------------------------------------
B-----------------------------------------------------------------
G----7-7-7-7-7-7-7-7--9-9-9-9-9-9-9-9----------------------------
D----7-7-7-7-7-7-7-7--9-9-9-9-9-9-9-9----------------------------
A----5-5-5-5-5-5-5-5--7-7-7-7-7-7-7-7-0--5/7-7-0-3-0-5/7-7-0-3---
E----------------------------------------------------------------

                  Puedo Volar....          Sin Viento.....
e--------------------------------------------------------
B--------------------------------------------------------
G--------------------------------------------------------
D--------------------------------------------------------
A----0-5/7-7-0-3-0-5/7-7-0-3-0-5-5-5-5-5-0-3-3-0-7-7-7-0-
E--------------------------------------------------------

coro:

 Hey Hey  Soy el hombre increible 
 Hey Hey  puedo hacer lo imposible
                                                           x2
e-------------------------------------------------------------||-----
B-------------------------------------------------------------||-----
G--4-4-4-4------7-7-------------4-4-4-4------7-7--------------||--4~-
D--4-4-4-4------7-7----3-3-3----4-4-4-4------7-7----3-3-3-----||--4~-
A--2-2-2-2-0-2--5-5-0--3-3-3----2-2-2-2-0-2--5-5-0--3-3-3-----||--2~-
E----------------------1-1-1-0----------------------1-1-1--0--||-----

verso:

Espacio angosto es..... mi lugar...............de estar
Camino asi el frente sin mirar.........hacia atras....sin mirar atras

                                                                x2
e-----------------------------------------------------------------
B-----------------------------------------------------------------
G----9-9-~--------5~--------4-4-x-4-4-4-x-4-4-4-x-4-4-4-x-4-5~----
D----9-9-~---3~---5~--------4-4-x-4-4-4-x-4-4-4-x-4-4-4-x-4-5~----
A----7-7-~---3~---3~--------2-2-x-2-2-2-x-2-2-2-x-2-2-2-x-2-3~----
E------------1~---------------------------------------------------

        Puedo Cambiar......              El tiempo...........
e----------------------------------------------------------------
B----------------------------------------------------------------
G----7-7-7-7-7-7-7-7--9-9-9-9-9-9-9-9----------------------------
D----7-7-7-7-7-7-7-7--9-9-9-9-9-9-9-9----------------------------
A----5-5-5-5-5-5-5-5--7-7-7-7-7-7-7-7-0--5/7-7-0-3-0-5/7-7-0-3---
E----------------------------------------------------------------

                     Puedo Volar....          Sin Viento.....
e--------------------------------------------------------
B--------------------------------------------------------
G--------------------------------------------------------
D--------------------------------------------------------
A----0-5/7-7-0-3-0-5/7-7-0-3-0-5-5-5-5-5-0-3-3-0-7-7-7-0-
E--------------------------------------------------------coro:

  Hey Hey  Soy el hombre increible
  Hey Hey  puedo hacer lo imposible                         
                                                            x4
e-------------------------------------------------------------||-----
B-------------------------------------------------------------||-----
G--4-4-4-4------7-7-------------4-4-4-4------7-7--------------||--4x-
D--4-4-4-4------7-7----3-3-3----4-4-4-4------7-7----3-3-3-----||--4x-
A--2-2-2-2-0-2--5-5-0--3-3-3----2-2-2-2-0-2--5-5-0--3-3-3-----||--2x-
E----------------------1-1-1-0----------------------1-1-1--0--||-----


Comentarios y dudas mandalas a zurdok_@

            
            
Suggest correction
Creating personal tab
Creating personal tab
You can edit any tab online and save it as your Personal.

You can edit, replace or remove any tab part or add personal notes – all changes will be seen only by you.

Personal tabs can be accessed anytime from any device, even offline.
Learn more »
Give kudos to tab author, rate the tab!
1 2 3 4 5
comments
print report bad tab
guest
Wanna post a correction for this tab? Suggest correction