Oops, an error
Loading. Please wait.

Hombre Sintetizador I tab

version 2
version 2

Whole song

25 views 1 this week
no commentswrite comment
1 2 3 4 5
3 more votes to show rating
add to favorites
×
Save as Personal and add changes to this tab that will be seen only by you. Learn more ›
×
You can save this tab as Personal to edit and correct it or add notes. All changes will be seen only by you. Learn more »
launch autoscroll
font size
0
reset
how to read this tab
guitar tuner
edit
Autoscroll
slow
fast
+/-
esc
set tempo
stop
Hombre Sintetizador (vivo) - Zurdok

Esta es la version que tocan en vivo ahora,es mas agresiva
que la original ... (tambien mi version) es lo mas parecido y sencillo de tocar

VA.
                      Afinada en E
Verso (durar mas en cada cambio)

   llega el porta voz...
                                                                     Distorcion
 E |-------------------------------------|------2-----------------|---------------------------|
 B |-----0-------0-------0---------1-----|----3--3-------4-----3--|---------------------------|
 G |---0---0---0---0---0---0---- 0---0---|--2------2---3---3--2-2-|--8-8-8--------------------|
 D |-2-------1-------0---------2-------2-|-0---------1-------0----|--------7-7-/-9------------|
 A |-------------------------3----------3|------------------------|--6-6-6--------------------|
 E |-------------------------------------|------------------------|--------5-5-/-7------------|


Corus                                         (sonidito despues del corus)

 E |----------------------------------------|--3-2-------------------------|
 B |----------------------------------------|------4-0---------------------|
 G |----------------------------------------|-----------2-4----------------|
 D |--5-5-5/7-------5-5/-8-------2-2--5-5---|------------------------------|
 A |--3-3-3/5-5-5-5-3-3/-6-5-5-5-0-0--3-3-5-|------------------------------|
 E |----------3-3-3--------3-3-3----------3-|------------------------------|


 C   G   C  D#  G    A     C     G
A veces puedo saber esto es realidad


Verso heavy y final

 E |-------------------------|
 B |-------------------------|
 G |-9--8--7--5--7-7--8--7---|-
 D |-------------------------|-
 A |-7--6--5--3--5-5--6--5---|-
 E |-------------------------|-


Ok eso es todo, chetes me la enseño personalmente jajaja hasta un chaval de primaria la podria tocar
Saludos Desde Hermosillo, sonora a cualquiera que le guste la rola y Zurdok
Y a todos los que aman la musica mexicana como dice Hector Quijada
ah Punk rock rules Ok?

Mario Flores T.
languido82@

            
            
Suggest correction
Creating personal tab
Creating personal tab
You can edit any tab online and save it as your Personal.

You can edit, replace or remove any tab part or add personal notes – all changes will be seen only by you.

Personal tabs can be accessed anytime from any device, even offline.
Learn more »
Give kudos to tab author, rate the tab!
1 2 3 4 5
comments
print report bad tab
guest
Wanna post a correction for this tab? Suggest correction