Oops, an error
Loading. Please wait.

Luna tab

version 1
version 1

Whole song

49 views 1 this week
no commentswrite comment
1 2 3 4 5
3 more votes to show rating
add to favorites
×
Save as Personal and add changes to this tab that will be seen only by you. Learn more ›
×
You can save this tab as Personal to edit and correct it or add notes. All changes will be seen only by you. Learn more »
launch autoscroll
font size
0
reset
how to read this tab
guitar tuner
edit
Autoscroll
slow
fast
+/-
esc
set tempo
stop
Afinación drop D

VERSO:
   A A         A A      AbAb         AbAb         A#A#
 Guarda sus palabras esconde todo ab--ajo de un disfraz

e------------------------------------------------------
b------------------------------------------------------
g------------------------------------------------------
d--7-7----------7-7------6-6-----------6-6----------8-8
a--7-7----------7-7------6-6-----------6-6----------8-8
d--7-7----------7-7------6-6-----------6-6----------8-8
   A            A       Ab                             
* Estos acordes van al ritmo del bajo

    C C     A#A#     A A   A A          AbAb   AbAb
No  te dice la   ver-dad  di-buja  lo normal
e------------------------------------------------------
b------------------------------------------------------
g------------------------------------------------------
d--10-10----8-8------7-7----7-7---------6-6-----6-6----
a--10-10----8-8------7-7----7-7---------6-6-----6-6----
d--10-10----8-8------7-7----7-7---------6-6-----6-6----
   C        A#       A      A           Ab      Ab
_______________________________________________________
 A#A#           C C    A#A#     A A    A A  AbAb Etc..
       Y todos   somos  sus  colores
e------------------------------------------------------
b------------------------------------------------------
g------------------------------------------------------
d--8-8----------10-10---8-8-----7-7--------------------
a--8-8----------10-10---8-8-----7-7--------------------
d--8-8----------10-10---8-8-----7-7--------------------
   A#           C       A#      A
COROS: 
        *Distortion
             C5     C#5    F    E       Eb       Bb5 C5
Quieres      escucharme   luna ven a decirme     m-ás
e-----------------------------------------------------
b------------------------------------------------------
g------------------------------------------------------
d-------x-x--5-/----6------3---2--------1-1-1-1---3-/5-
a-------x-x--3-/----4b-----3---2--------1-1-1-1---1-/3-
d--------------------------3---2--------1-1-1-1--------
       *     C5     C#5    F   E        Eb      Bb5 C5 
 
             C#5          D#5             C5
   Ya no alcanzo     la razón          de mi confusión
e------------------------------------------------------
b------------------------------------------------------
g------------------------------------------------------
d------------6-6-6--------8-8-8------------5-5-5-5-5-5-
a------------4-4-4--------6-6-6--6-8-6-----3-3-3-3-3-3-
d------------------------------------------------------

      G#                   G    A
     Tú puedes decírmelo   to- do
e------------------------------------------------------
b------------------------------------------------------
g------------------------------------------------------
d-----6-6-6-6--6--6---6-----5---7----------------------
a-----6-6-6-6--6--6---6-----5---7----------------------
d-----6-6-6-6--6--6---6-----5---7----------------------


COROS: final
        *Distortion
             C5     C#5    F    E       Eb       Bb5 C5
Quieres      escucharme   luna ven a decirme     m-ás
e------------------------------------------------------
b------------------------------------------------------
g------------------------------------------------------
d-------x-x--5-/----6------3---2--------1-1-1-1--3-/5-
a-------x-x--3-/----4b-----3---2--------1-1-1-1--1-/3-
d--------------------------3---2--------1-1-1-1--------
       *     C5     C#5    F   E        Eb      Bb5 C5 

             C#5          D#5             C5
   Ya no alcanzo     la razón          de mi confusión
e------------------------------------------------------
b------------------------------------------------------
g------------------------------------------------------
d------------6-6-6--------8-8-8------------5-5-5-5-5-5-
a------------4-4-4--------6-6-6--6-8-6-----3-3-3-3-3-3-
d------------------------------------------------------

      G#                    F    E       Eb      Bb5 C5
     Tú puedes decírmelo   luna ven a decirme     m-ás
e------------------------------------------------------
b------------------------------------------------------
g------------------------------------------------------
d-----6-6-6-6--6--6---6-----3----2-------1-1-1----3/-5-
a-----6-6-6-6--6--6---6-----3----2-------1-1-1----1/-3-
d-----6-6-6-6--6--6---6-----3----2-------1-1-1---------
 
             C#5          D#5             C5
   Ya no alcanzo     la razón          de mi confusión
e------------------------------------------------------
b------------------------------------------------------
g------------------------------------------------------
d------------6-6-6--------8-8-8------------5-5-5-5-5-5-
a------------4-4-4--------6-6-6--6-8-6-----3-3-3-3-3-3-
d------------------------------------------------------

      G#                   A#              G   A
     Tú puedes decírmelo   ven a decírmelo to-do
e------------------------------------------------------
b------------------------------------------------------
g------------------------------------------------------
d-----6-6-6-6--6--6---6-----8-8-8-8-8-8----5---7-------
a-----6-6-6-6--6--6---6-----8-8-8-8-8-8----5---7-------
d-----6-6-6-6--6--6---6-----8-8-8-8-8-8----5---7-------

            
            
Suggest correction
Creating personal tab
Creating personal tab
You can edit any tab online and save it as your Personal.

You can edit, replace or remove any tab part or add personal notes – all changes will be seen only by you.

Personal tabs can be accessed anytime from any device, even offline.
Learn more »
Give kudos to tab author, rate the tab!
1 2 3 4 5
comments
print report bad tab
guest
Wanna post a correction for this tab? Suggest correction