Oops, an error
Loading. Please wait.

Nadie Te Quiere Ver tab

version 2
version 2

Whole song

23 views 1 this week
no commentswrite comment
1 2 3 4 5
3 more votes to show rating
add to favorites
×
Save as Personal and add changes to this tab that will be seen only by you. Learn more ›
×
You can save this tab as Personal to edit and correct it or add notes. All changes will be seen only by you. Learn more »
launch autoscroll
font size
0
reset
how to read this tab
guitar tuner
edit
Autoscroll
slow
fast
+/-
esc
set tempo
stop
****AFINADA EN dropped D****

Se repite todo tres veces.

 1.- Nadie esta escuchando, mejor no hablar
 2.- Todos van contentos, y tu a llorar

x2
e-----------------------------------------------------||
B------------------------------------------2-2-2-2----||
G---------------------------------5-5-5-5--2-2-2-2----||
D--7-7--7-7-7--7/3-3-3-3-3-3-3-3--5-5-5-5--2-2-2-2----||
A--7-7--7-7-7--7/3-3-3-3-3-3-3-3--3-3-3-3--4-4-4-4----||
D--7-7--7-6-6--6/3-3-3-3-3-3-3-3----------------------||

 Ya lo se, solo puedes caminar

e---------------------------------------
B---------------------------------------
G---------------------------------------
D-5-5-5-5--3-3-3-3--6-6-6-6-6-6-6-6-----
A-5-5-5-5--3-3-3-3--6-6-6-6-6-6-6-6-----
D-5-5-5-5--3-3-3-3--6-6-6-6-6-6-6-6-----


   No puedes volar, y nunca lo haras, no no no no no

e------------------------------------------------------------------
B------------------------------------------------------------------
G------------------------------------------------------------------
D--------------------------------------6-5-4-3--3-3-3-5--6-6-8-8-8
A---13-13-15-13--13-13-15-13--6-6-8-6--6-5-4-3--3-3-3-5--6-6-8-8-8
D---13-13-13-13--13-13-13-13--6-6-6-6--6-5-4-3--3-3-3-5--6-6-8-8-8


Coro:

en la primera ves se toca 2 veces, en la segunda 3 veces, y en el final se toca 4 veces.


Nadie te quiere ver.....

e--------------------------------------------------------||-------
B--------------------------------------------------------||-------
G-8-8-8--------------------------------------------------||-------
D-8-8-8--8-8/6-6--6-6/8-8/10-10--10-10/8-8/6-6--6-6/8-8-0||--6--8-
A-6-6-6--8-8/6-6--6-6/8-8/10-10--10-10/8-8/6-6--6-6/8-8-0||--6--8-
D--------8-8/6-6--6-6/8-8/10-10--10-10/8-8/6-6--6-6/8-8-0||--6--8-
                                                              |
                                                              |
                                                              |
                      en el final esto -----------------------*
                      se cambia por esto--*
                                          |
     *------------------------------------*   
     | 
     |
e------------
B------------
G------------
D--1-1-0-1---
A--1-1-0-1---
D--1-1-0-1---

            
            
Suggest correction
Creating personal tab
Creating personal tab
You can edit any tab online and save it as your Personal.

You can edit, replace or remove any tab part or add personal notes – all changes will be seen only by you.

Personal tabs can be accessed anytime from any device, even offline.
Learn more »
Give kudos to tab author, rate the tab!
1 2 3 4 5
comments
print report bad tab
guest
Wanna post a correction for this tab? Suggest correction