Oops, an error
Loading. Please wait.

Tal Vez tab

version 1
version 1

Whole song

21 views 1 this week
no commentswrite comment
1 2 3 4 5
3 more votes to show rating
add to favorites
×
Save as Personal and add changes to this tab that will be seen only by you. Learn more ›
×
You can save this tab as Personal to edit and correct it or add notes. All changes will be seen only by you. Learn more »
launch autoscroll
font size
0
reset
how to read this tab
guitar tuner
edit
Autoscroll
slow
fast
+/-
esc
set tempo
stop
NOTA: Afinacion dropped D


     E    D    B    A    G    B1
e----x----x----x----0----x----x
B----x----x----x----2----x----x
G----9----7----4----2----x----x
D----9----7----4----2----5----9
A----7----5----2----0----5----9
D----x----x----x----x----5----9


intro E D B A  (limpio)x2


**verso 1(limpio):

 E         D       B       A             E    D   B   A            
    Tal vez sea tiempo de pensar en vivir
 E         D    (A-5--4--2--0--0             
                 D---------------2--0)  
    en vez de siempre hablar de morir
 
**puente (limpio):

 G  slide--> B1
    y de siempre reprochar
 G  slide--> B1
    sabemos que esta mal


**coro:  x4  [distorsion]


    Ya me canse
    ya me canse de hablar
    ya me canse de estar aqui

e--------------------------------------||
B--------------------------------------||
G---------------5----------------------||
D------7------5---5-----3-------2------||
A----7---7--3---------3---3---2---2----||
D--7----------------3-------2----------||


    
**verso 2:  E  D  B  A  x2 con solo (limpio)

  
 E        D       B      A          E   D   B   A
    Si me crees, podrias hacer un favor
 E        D      (A-5--4--2--0--0             
                  D---------------2--0)  
    si no ves, tendrias toda la razon


**puente (limpio):

 G   slide--> B1
    y no culpo al que no ve
 G   slide--> B1
    podria enloquecer

    

**coro:  x4  [distorsion]


    Ya me canse
    ya me canse de hablar
    ya me canse de estar aqui

e--------------------------------------||
B--------------------------------------||
G---------------5----------------------||
D------7------5---5-----3-------2------||
A----7---7--3---------3---3---2---2----||
D--7----------------3-------2----------||


**verso 3: (distorsion)

Tal vez, sea tiempo de pensar en vivir
e--------------------------------------------------------------||
B--------------------------------------------------------------||
G--------------------------------------------------------------||
D--2--0-------------------------2--0---------------------------||
A--2--0---5--4--2--0--0---------2--0---5--4--2--0--------------||
D--2--0------------------2--0---2--0---------------2--0--------||


En Vez, de siempre hablar de sufrir
e-------------------------------------------------------------------||
B-------------------------------------------------------------------||
G-------------------------------------------------------------------||
D-2-2-2-0-0-0-0-0--9-9-9-7-7-7-7-0--2-2-2-0-0-0-0-0--9-9-9-7-7-7-7-0||
A-2-2-2-0-0-0-0-0--9-9-9-7-7-7-7-0--2-2-2-0-0-0-0-0--9-9-9-7-7-7-7-0||
D-2-2-2-0-0-0-0-0--9-9-9-7-7-7-7-0--2-2-2-0-0-0-0-0--9-9-9-7-7-7-7-0||


**puente (limpio):

 G   slide--> B1
    y no culpo al que no ve
 G   slide--> B1
    podria enloquecer


**coro:  x4  [distorsion]


    Ya me canse
    ya me canse de hablar
    ya me canse de estar aqui

e------------------------------------------------||------
B------------------------------------------------||------
G--------------5-5-5-5---------------------------||------
D--7-7-x-x-x---5-5-5-5--0h3-3-3-3--0h2p0h2--2-2--||--2s7~
A--7-7-x-x-x---3-3-3-3--0h3-3-3-3--0h2p0h2--2-2--||--2s7~
D--7-7-x-x-x------------0h3-3-3-3--0h2p0h2--2-2--||--2s7~
    


comentarios mandenlos a zurdok_@

            
            
Suggest correction
Creating personal tab
Creating personal tab
You can edit any tab online and save it as your Personal.

You can edit, replace or remove any tab part or add personal notes – all changes will be seen only by you.

Personal tabs can be accessed anytime from any device, even offline.
Learn more »
Give kudos to tab author, rate the tab!
1 2 3 4 5
comments
print report bad tab
guest
Wanna post a correction for this tab? Suggest correction