Oops, an error
Loading. Please wait.

Endless Summer Chords

by Zwan
5,333 views 3 this week
1 commentread comment
1 2 3 4 5
accurate
x 3
add to favorites
launch autoscroll
font size
0
reset
transpose
0
reset
display chords
guitar tuner
Autoscroll
slow
fast
+/-
esc
set tempo
stop
Help us to improve Ultimate-Guitar.com Take our survey!
×
intro:

e---0--------0--------------0-------0-----(0)-------------
B------4--------4-----------------0-------(0)-------------
G---------2--------2---1/2-----/8-------9-11~~------------
D---------------------------------------------------------
A---------------------------------------------------------
E---------------------------------------------------------

e--------0----------0-------(0)---
B--------0--------0---0-----(0)---
G---9h11----11/13--------14/16----
D---------------------------------
A---------------------------------
E---------------------------------

B F# A
B F# A
                
E                          G#m
once there was a time that i believed
      A                    F#m
that some pouring rain is just the pouring rain
          E         
it wasn't me  
           G#m                   F#m       A
with every dim light that isn't shiny and bright
       F#m         
we'll suspend the storms and the clouds in sight

              B  F#  A   
of an endless summer
              B  F#  A     
an endless summer
            E G#m       F#m     
an endless summer to be home

 E         G#m     F#m  ***(see riff below)                   
let me go, wasting time
 E         G#m     F#m                  
let me go waste my time

E                             G#m                  
once there was a child, could i believe it was you
  A                 
a kiss was just a kiss
   F#m                     E
no matter how i missed you
         E       G#m   
shine a light on me
       A              F#m
say a prayer for the leaves

              B  F#  A    
of an endless summer
              B  F#  A     
an endless summer
           E  G#m       F#m
an endless summer to be home

                      E G#m F#m
did we go on too long
                        E G#m F#m
did we listen too close
                    E G#m F#m
till we felt strong
                                  E G#m F#m
the things children shouldn't know

            G#m                 F#m   A
and so the fall-out from your thirty [?]
    F#m            
of broken chairs and your pedigrees
         G#m                            F#m          A         
and the songs kill the songs, and the daughters stay wise
        F#m            
'cause when we rule, everybody dies

               B  F#  A    
in an endless summer
               B F#  A   
an endless summer
           E  G#m        F#m        
an endless summer to be home


solo:  E G#m F#m x2
       E G#m A
       B F#  A
       E G#m F#m x4

 E         G#m     F#m                   
let me go, wasting time
let me go waste my time
let me go waste my time
let me go waste my time
 
                   E G#m F#m
now you can disagree
with how i choose to live
but freedom isn't free
unless you learn how to give

E       G#m     F#m
summer, summer, summer, yeah
summer, summer, summer, yeah
summer, summer, summer, yeah
summer, summer, summer, yeah

end on E

repeat intro riff


***(see asterisks above)
e------------------------------------
B--^-------^-------------------------
G-11-9-----11-9-------9h11~~--9~~~---
D------------------------------------
A------------------------------------
E------------------------------------
  Let me go wa-a-sting ti-ime
Suggest correction
What's this?
You can suggest a correction to this tab. Community and Mods will review your correction and vote to approve or reject it.
comments
We did not receive enough feedback on this tab! Please rate:
print report bad tab
1 2 3 4 5
1 comment total.
0 reply
bittle 104 wrote on April 5 2016, 09:19 pm

the end of the intro riff should be

e--------0----------0-------(0)---
B--------0--------0---0-----(0)---
G---9h11----11/13--------13/14----
D---------------------------------
A---------------------------------
E---------------------------------

And the chords after that and in the chorus are:

B F#m A

guest
You may want to rate the tab now too:
select rating
Please do not post tabs as comments. Select "correction" instead!