Oops, an error
Loading. Please wait.

The Number Of The Beast Chords

version 1
version 1

Whole song

Interactive

by Zwan
59,685 views 81 this week
5 commentsread comments
1 2 3 4 5
x 13
add to favorites
launch autoscroll
font size
0
reset
transpose
0
reset
simplify chords
display chords
guitar tuner
Autoscroll
slow
fast
+/-
esc
set tempo
stop
Help us to improve Ultimate-Guitar.com Take our survey!
×
Difficulty
Tuning
novice
E A D G B E
(Original tuning = Open G)

Verse -> Gm F
Chorus -> Bb Bb/A Bb Gm

Im not sure how the picking goes, but this sounds like a good start..
            Gm            Gm            F             Gm
e|----------3-3-3---------3-3-3---------1-1-1---------3-3-3-|
B|--------1-3-3-3-------1-3-3-3-------1-1-1-1-------1-3-3-3-|
G|--0-0-3---------0-0-3---------0-0-3---2-2-2-0-0-3---------|
D|--------------------------------------3-3-3---------------|
A|----------x-x-x---------x-x-x---------3-3-3---------x-x-x-|
E|----------3-3-3---------3-3-3---------x-x-x---------3-3-3-|

[Verse]
Gm
I left alone, my mind was blank
         F                                  Gm
I needed time to think, to get the memories from my mind

What did I see, can I believe
            F                                    Gm
That what I saw that night was real and not just fantasy

Just what I saw in my old dreams
           F                             Gm
Were the reflections of my woman staring back at me

'cause in my dreams, it's always there
         F                                      Gm
The evil face that twists my mind and brings me to despair

[Chorus]
Bb      Bb/A     Bb   Bb/A     Gm
Six six six, the number of the beast
Bb       Bb/A     Bb        Bb/C Gm
Hell and fire was spawned to be  released

[Verse]
Torches blazed and sacred chants were praised
And as they start to cry, their hands held to the sky
And in the night, the fires burning bright
The ritual has begun, Satan's work is done

[Chorus]
Six six six, the number of the beast
Sacrifice is going on tonight

[Verse]
I'm coming back, I will return
I will possess your body and I'll make you burn
'cause I have the fire, I have the force
I have the power to make my evil take its course
Suggest correction
comments
print report bad tab
5 comments total. Showing first comments.
0 reply
Solced 250 May 13, 2009 02:23 PM

i think its G minor.

0 reply
cormac369 57 May 13, 2015 08:14 AM

I don't think it's G minor either. Gsus2 is closest in my opinion, but I play it with the A string muted. Then during the chorus Bd and C notes are played before the G chord(below). (Tab is more spaced out than one above)
e ----------------------3---3---3---3-------
B ----------------------3---3---3---3-------
G ----------------------0---0---0---0-------
D ----------------------0---0---0---0-------
A 1-------3-------------x---x---x---x-------
E ----------------3---3-------3-------------
I hope this helps. I heard this song on the soundtrack to Spun.

0 reply
sir joe of the 10 Sep 16, 2015 03:28 PM

am g sounds better

guest
You may want to rate the tab now too:
select rating
Wanna post a correction for this tab? Suggest correction