Oops, an error
Loading. Please wait.

Blue Jean Blues Bass Tab

version 2
version 2

Whole song

Interactive

8,548 views 30 this week
1 commentread comment
1 2 3 4 5
excellent!
x 10
add to favorites
launch autoscroll
font size
0
reset
guitar tuner
Autoscroll
slow
fast
+/-
esc
set tempo
stop
Help us to improve Ultimate-Guitar.com Take our survey!
×
Difficulty
novice
verse riff
g|---------------X--------------|
D|---------------X--------------|
A|--------0--2---X------2-------|
E|---3-----------X---2----------|

Chorus riff
g|---------------X--------------|
D|---------------X------2-------|
A|---------------X---2----------|
E|---2----1--0---X--------------|

Bridge
g|---------------X----------X---4--------------|
D|---------------X------4---X-------0----------|
A|---------------X---4------X-----------2------|
E|---3----2------X----------X------------------|


basic layout:

verse riff X4
chorus riff X2
verse riff X2
bridge
repeat.......
Suggest correction
comments
print report bad tab
1 comment total.
0 reply
Ed9870 73 wrote on August 26 2012, 02:50 pm

You nailed it, brother.

guest
You may want to rate the tab now too:
select rating
Wanna post a correction for this tab? Suggest correction