Oops, an error
Loading. Please wait.

Cant Stop Rockin Bass Tab

version 1
version 1

Whole song

Interactive

387 views 1 this week
no commentswrite comment
1 2 3 4 5
please rate
add to favorites
launch autoscroll
font size
0
reset
guitar tuner
Tab Pro tools
  • play this tab
  • loop segment
  • change instrument
  • show fretboard
  • metronome
×
Best way to learn
"Cant Stop Rockin"
Autoscroll
slow
fast
+/-
esc
set tempo
stop
Contributor
Difficulty
novice
credit to songsterr for sheet music/tabs

Intro -
G|------|rest|-------------|---------------|---------|-------------|--------|
D|------|rest|-------------|---------------|---------|-------------|--------|
A|------|rest|-------------|---------------|---------|-------------|--------|
E|----3-|rest|-3-3-3-3-3-3-|-3-3-3-3-3-3~--|-----3-3-|-3-3-3-3-3-3-|-3-3-3-3|

- tiny rest after the end of intro - then :

Verse - X2
G|-------------|-------------|-------------|-------------|-------------|
D|-------------|-------------|-------------|-------------|-------------|
A|-------------|-------------|-------------|-------------|-------------|
E|-3-3-3-3-3-3-|-3-3-3-3-3-3-|-3-3-3-3-3-3-|-3-3-3-3-3-3-|-3-3-3-3-3-3-|

Chorus -
G|-------------|-------------|-------------|-------------|-------------|
D|-------------|-------------|-------------|-------------|-------------|
A|---------3-3-|-3-3-3-3-3-3-|-3-3-3-3-3-3-|-3-3---------|-------------|
E|-3-3-3-3-----|-------------|-------------|-----3-3-3-3-|-3-3-3-3-3-3-|

G|-------------|-------------|-------------|-------------|-------------|
D|-------------|-------------|-------------|-------------|-------------|
A|-------------|-5-5-5-5-5-5-|-5-5-5-5-5-5-|-5-5-5-5-----|-------------|
E|-3-3-3-3-3-3-|-------------|-------------|---------3-3-|-3-3-3-3-3-3-|

G|-----------|-----------|-------------|----------|
D|-----------|-----------|-------------|----------|
A|-----------|-----------|-------------|----------|
E|-3-3-3-3---|---3-3-3-3-|-3-3-3-3-3-3-|-3-3------|

Verse 2 - X2
G|-------------|-------------|-------------|-------------|-------------|
D|-------------|-------------|-------------|-------------|-------------|
A|-------------|-------------|-------------|-------------|-------------|
E|-3-3-3-3-3-3-|-3-3-3-3-3-3-|-3-3-3-3-3-3-|-3-3-3-3-3-3-|-3-3-3-3-3-3-|

Chorus 2 -
G|-------------|-------------|-------------|-------------|-------------|
D|-------------|-------------|-------------|-------------|-------------|
A|---------3-3-|-3-3-3-3-3-3-|-3-3-3-3-3-3-|-3-3---------|-------------|
E|-3-3-3-3-----|-------------|-------------|-----3-3-3-3-|-3-3-3-3-3-3-|

G|-------------|-------------|-------------|-------------|-------------|
D|-------------|-------------|-------------|-------------|-------------|
A|-------------|-5-5-5-5-5-5-|-5-5-5-5-5-5-|-5-5-5-5-----|-------------|
E|-3-3-3-3-3-3-|-------------|-------------|---------3-3-|-3-3-3-3-3-3-|

G|-----------|-----------|-------------|----------|
D|-----------|-----------|-------------|----------|
A|-----------|-----------|-------------|----------|
E|-3-3-3-3---|---3-3-3-3-|-3-3-3-3-3-3-|-3-3-3-3--|

Solo -
G|-------------|-------------|-------------|-------------|-------------|
D|-------------|-------------|-------------|-------------|-------------|
A|-------------|-------------|-------------|-------------|-------------|
E|-3-3-3-3-3-3-|-3-3-3-3-3-3-|-3-3-3-3-3-3-|-3-3-3-3-3-3-|-3-3-3-3-3-3-|

G|-------------|-------------|-------------|-------------|-------------|
D|-------------|-------------|-------------|-------------|-------------|
A|-----3-3-3-3-|-3-3-3-3-3-3-|-3-3-3-3-3-3-|-------------|-------------|
E|-3-3---------|-------------|-------------|-3-3-3-3-3-3-|-3-3-3-3-3-3-|

G|-------------|-------------|-------------|-------------|-------------|
D|-------------|-------------|-------------|-------------|-------------|
A|---------3-3-|-3-3-3-3-3-3-|-3-3-3-3-3-3-|-3-3---------|-------------|
E|-3-3-3-3-----|-------------|-------------|-----3-3-3-3-|-3-3-3-3-3-3-|

G|-------------|-------------|-------|
D|-------------|-------------|-------|
A|-------------|-------------|-------|
E|-3-3-3-3-3-3-|-3-3-3-3-3-3-|-3-----| rest for 6 bars after

Break -
G|-------------|---------------|---------|-------------|------------|
D|-------------|---------------|---------|-------------|------------|
A|-------------|---------------|---------|-------------|------------|
E|-3-3-3-3-3-3-|-3-3-3-3-3-3~--|-----3-3-|-3-3-3-3-3-3-|-3-3-3-3----|

G|-------------|X10|-------------|-------------|-------------|-------------|
D|-------------|X10|-------------|-------------|-------------|-------------|
A|-------------|X10|---------3-3-|-3-3-3-3-3-3-|-3-3-3-3-3-3-|-3-3---------|
E|-3-3-3-3-3-3-|X10|-3-3-3-3-----|-------------|-------------|-----3-3-3-3-|

G|-------------|-------------|-------------|-------------|-------------|
D|-------------|-------------|-------------|-------------|-------------|
A|-------------|-------------|-5-5-5-5-5-5-|-5-5-5-5-5-5-|-5-5-5-5-----|
E|-3-3-3-3-3-3-|-3-3-3-3-3-3-|-------------|-------------|---------3-3-|

G|-------------|-----------|-----------|-------------|----------|
D|-------------|-----------|-----------|-------------|----------|
A|-------------|-----------|-----------|-------------|----------|
E|-3-3-3-3-3-3-|-3-3-3-3---|---3-3-3-3-|-3-3-3-3-3-3-|-3-3------| rest for 5

Solo 2 -
G|-----------|-------------|X4|-------------|-------------|-------------|
D|-----------|-------------|X4|-------------|-------------|-------------|
A|-----------|-------------|X4|---------3-3-|-3-3-3-3-3-3-|-3-3-3-3-3-3-|
E|---3-3-3-3-|-3-3-3-3-3-3-|X4|-3-3-3-3-----|-------------|-------------|

G|-------------|-------------|-------------|-------------|-------------|
D|-------------|-------------|-------------|-------------|-------------|
A|-3-3---------|-------------|-------------|-3-3-3-3-3-3-|-3-3-3-3-3-3-|
E|-----3-3-3-3-|-3-3-3-3-3-3-|-3-3-3-3-3-3-|-------------|-------------|

G|-------------|-------------|X10|-------------|-------------|-------------|
D|-------------|-------------|X10|-------------|-------------|-------------|
A|-3-3-3-3-----|-------------|X10|-----3-3-3-3-|-3-3-3-3-3-3-|-3-3-3-3-3-3-|
E|---------3-3-|-3-3-3-3-3-3-|X10|-3-3---------|-------------|-------------|

G|-------------|-------------|-------------|-------------|-------------|----|
D|-------------|-------------|-------------|-------------|-------------|----|
A|-------------|-------------|---------3-3-|-3-3-3-3-3-3-|-3-3-3-3-3-3-|-3-3|
E|-3-3-3-3-3-3-|-3-3-3-3-3-3-|-3-3-3-3-----|-------------|-------------|----|

That it, enjoy, apologies for length, a simple song, but multiple different formations 
of everything
comments
We did not receive enough feedback on this tab! Please rate:
print report bad tab
1 2 3 4 5
I want to post or [tab]
guest
You may want to rate the tab now too:
select rating
Please do not post tabs as comments. Select "correction" instead!