Oops, an error
Loading. Please wait.

Cheap Sunglasses Bass Tab

version 2
version 2

Whole song

Interactive

16,604 views 21 this week
3 commentsread comments
1 2 3 4 5
excellent!
x 4
add to favorites
launch autoscroll
font size
0
reset
guitar tuner
Tab Pro tools
  • play this tab
  • loop segment
  • change instrument
  • show fretboard
  • metronome
×
Best way to learn
"Cheap Sunglasses"
Autoscroll
slow
fast
+/-
esc
set tempo
stop
#----------------------------------PLEASE NOTE---------------------------------#
#This file is the author's own work and represents their interpretation of the #
#song. You may only use this file for private study, scholarship, or research. #
#------------------------------------------------------------------------------##

                           CHEAP SUNGLASSES (Bassline)
                              As recorded by ZZ Top
                         (From the 1979 Album DEGUELLO)


Gtr I (E A D G) - 'Untitled'

 Intro
  Q=100
 4/4
  Gtr I
  e e e S e e S e e   e e e S e e S e e
|-------------------|-------------------|
|-------------------|-------------------|
|---------------1-3-|---------------1-3-|
|-3-3-3-1-3-3-3-----|-3-3-3-1-3-3-3-----|


  e e e S e e S e e   e e e S e e S e e
|-------------------|-------------------|
|-------------------|-------------------|
|---------------1-3-|---------------1-3-|
|-3-3-3-1-3-3-3-----|-3-3-3-1-3-3-3-----|


   Verse
    e e e S e e S e e   e e e S e e S e e
||--------------------|-------------------|
||o-------------------|-------------------|
||o---------------1-3-|---------------1-3-|
||--3-3-3-1-3-3-3-----|-3-3-3-1-3-3-3-----|


  e e e S e e S e e   e e e S e e S e e
|-------------------|--------------------|
|-------------------|--------------------|
|---------------1-3-|---------------1-3--|
|-3-3-3-1-3-3-3-----|-3-3-3-1-3-3-3------|


                                                        Chorus
  e e e S e e S e e   e e e S e e S e e   e  H..         S e e e S e e E.  S
|-------------------|-------------------|--------------|----------------------|
|-------------------|-------------------|--------------|----------------------|
|---------------1-3-|---------------1-3-|--------------|-----------1-3-1------|
|-3-3-3-1-3-3-3-----|-3-3-3-1-3-3-3-----|-3------------|-3-3-1-3-3---------1--|


                                                  To Coda
  S e e e S e e E. S   S e e e S e e E. S   S e e E. H
|--------------------|--------------------|----------------||
|--------------------|--------------------|---------------o||
|-----------1-3-1----|-----------1-3-1----|---------------o||
|-3-3-1-3-3--------1-|-3-3-1-3-3--------1-|-3-3-1-3--------||


   Interlude
    $
    E E E S e E S S S S S   E E E S e E S S S S S
||------------------------|-----------------------|
||o-----------------------|-----------------------|
||o-----------------------|-----------------------|
||--3-3-3-3-3-3-3-3-3-3-3-|-3-3-3-3-3-3-3-3-3-3-3-|


  E E E S e E S S S S S   E E E S e E S S S S S
|-----------------------|--------------------------||
|-----------------------|-------------------------o||
|-----------------------|-------------------------o||
|-3-3-3-3-3-3-3-3-3-3-3-|-3-3-3-3-3-3-3-3-3-3-3----||


   Guitar Solo
    E E E S e e S S S E   E E E S e e S S S E
||----------------------|----------------------||
||o---------------------|---------------------o||
||o-3-3-3---3-3-1-3-3-1-|-3-3-3---3-3-1-3-3-1-o||
||--------3-------------|-------3--------------||


  E E E S e E S S S E   E E E S e E S S S E
|---------------------|-----------------------|
|---------------------|-----------------------|
|-1-1-1---1-1---1-1---|-1-1-1---1-1---1-1-----|
|-------1-----3-----3-|-------1-----3-----3---|


  E E E S e e S S S E   E E E S e e S S S E
|---------------------|---------------------|
|---------------------|---------------------|
|-3-3-3---3-3-1-3-3-1-|-3-3-3---3-3-1-3-3-1-|
|-------3-------------|-------3-------------|


                                            D.S.
  E E E S e E S S S S S   E E E S e E S S S S S
|-----------------------|------------------------|
|-0-0-0-0-0-0-0-0-0-0-0-|-0-0-0-0-0-0-0-0-0-0-0--|
|-----------------------|------------------------|
|-----------------------|------------------------|


                                                                  D.C. al Coda
  S e e e S e e E. S   S e e e S e e E. S   S e e e S e e E. S   S e e E.   H
|--------------------|--------------------|--------------------|---------------|
|--------------------|--------------------|--------------------|---------------|
|-----------1-3-1----|-----------1-3-1----|-----------1-3-1----|---------------|
|-3-3-1-3-3--------1-|-3-3-1-3-3--------1-|-3-3-1-3-3--------1-|-3-3-1-3-------|


   Outro Solo
    &
        PM|     PM         PM|
    S S E E S S H      S S E E S S S S S S S S S S
||-------------------|-----------------------------|
||o------------------|-----------------------------|
||o------------------|-------------1-------1-------|
||--1-3-----1-3------|-1-3-----1-3---3-1-3---3-1-0-|


      PM|     PM         PM|
  S S E E S S H      S S E E S S S S S S S S S S    6x
|------------------|--------------------------------||
|------------------|-------------------------------o||
|------------------|-------------1-------1---------o||
|-1-3-----1-3------|-1-3-----1-3---3-1-3---3-1-0----||


        PM|     PM         PM|     PM
    S S E E S S H      S S E E S S H
||-------------------|------------------|
||o------------------|------------------|
||o------------------|------------------|
||--1-3-----1-3------|-1-3-----1-3------|


      PM|     PM         PM|     PM
  S S E E S S H      S S E E S S H        W
|------------------|-------------------||------*|
|------------------|------------------o||------*|
|------------------|------------------o||------*|
|-1-3-----1-3------|-1-3-----1-3-------||------*|


Duration Legend
---------------
W - whole; H - half; Q - quarter; E - 8th; S - 16th; T - 32nd; X - 64th; a - acciaccatura
+ - note tied to previous; . - note dotted; .. - note double dotted
Uncapitalized letters represent notes that are staccato (1/2 duration)
Irregular groupings are notated above the duration line
Duration letters will always appear directly above the note/fret number it represents the
duration for.  Duration letters with no fret number below them represent rests.  Multi-
bar rests are notated in the form Wxn, where n is the number of bars to rest for.  Low
melody durations appear below the staff

Tablature Legend
----------------
 h   - hammer-on
 p   - pull-off
 b   - bend
 pb  - pre-bend
 r   - bend release (if no number after the r, then release immediately)
 /\  - slide into or out of (from/to "nowhere")
 s   - legato slide
 S   - shift slide
  - natural harmonic
[n]  - artificial harmonic
n(n) - tapped harmonic
 ~   - vibrato
 tr  - trill
 T   - tap
 TP  - trem. picking
 PM  - palm muting
\n/  - tremolo bar dip; n = amount to dip
 \n  - tremolo bar down
 n/  - tremolo bar up
/n\  - tremolo bar inverted dip
 =   - hold bend; also acts as connecting device for hammers/pulls
 <>  - volume swell (louder/softer)
 x   - on rhythm slash represents muted slash
 o   - on rhythm slash represents single note slash

Misc Legend
-----------
 |  - bar
||  - double bar
||o - repeat start
o|| - repeat end
*|  - double bar (ending)
 :  - bar (freetime)
 $  - Segno
 &  - Coda
Tempo markers -  = BPM(8/16=s8/s16), where s8 = swing 8ths, s16 = swing 16ths


***************************************************************************************
* Generated using Power Tab Editor by Brad Larsen - http://powertab.guitarnetwork.org *
***************************************************************************************
comments
print report bad tab
3 comments total.
0 reply
ahanson wrote on February 25 2007, 02:23 am

SOUNDS GREAT!!!

+1 reply
stryker4526 wrote on August 19 2007, 08:38 pm

*sigh* Another bassist who ignores the fills.

+1 reply
JBourn wrote on February 2 2009, 09:47 am

this tab is wrong your better off jammin c blues the whole song then trying to make this tab work

I want to post or [tab]
guest
You may want to rate the tab now too:
select rating
Please do not post tabs as comments. Select "correction" instead!