Oops, an error
Loading. Please wait.

Gimme All Your Lovin Bass Tab

version 1
version 1

Whole song

Interactive

1,407,701 views 69 this week
no commentswrite comment
1 2 3 4 5
x 18
add to favorites
launch autoscroll
font size
0
reset
guitar tuner
Autoscroll
slow
fast
+/-
esc
set tempo
stop
Help us to improve Ultimate-Guitar.com Take our survey!
×
ZZ TOP - "Gimme All Your Lovin' " - Bass Tab
    
[Intro]

          (x4)              (x7)
G|-----------|-------------------|---------------|
D|*---------*|*-----------------*|-----------4-5-|
A|*-R-R-R-R-*|*-3-3-3-3-3-3-3-3-*|-3-3-3-3-3-----|
E|-----------|-------------------|---------------|
    1 2 3 4     1 & 2 & 3 & 4 &    1 & 2 & 3 & 4 
    
[Verse]

G|-------------------|
D|*-----------------*|
A|*-3-3-3-3-3-3-3-3-*|
E|-------------------|
    1 & 2 & 3 & 4 &
    

[Chorus](x2)

G|-----------------|-----------------|-------------------|
D|-----------------|-----------------|*-----------------*|
A|-1-1-1-1-1-1-1-1-|-----------------|*-3-3-3-3-3-3-3-3-*| (x2)
E|-----------------|-1-1-1-1-1-1-1-1-|-------------------|
   1 & 2 & 3 & 4 &   1 & 2 & 3 & 4 &    1 & 2 & 3 & 4 &
    
[Last Verse]

G|-------------|
D|*-----------*|
A|*-3-r-3-3-r-*|
E|-------------|
    1 2 & 3 4
    
By: Johari Taylor
Email: viking@powerup.com.au



************************************

| *  Natural harmonic
| r  Release
| R  rest

************************************
Suggest correction
comments
print report bad tab
guest
You may want to rate the tab now too:
select rating
Wanna post a correction for this tab? Suggest correction