Oops, an error
Loading. Please wait.

Gimme All Your Lovin Tab

version 1
version 1

Whole song

Interactive

195,507 views 210 this week
3 commentsread comments
1 2 3 4 5
x 10
add to favorites
launch autoscroll
font size
0
reset
how to read this tab
guitar tuner
Autoscroll
slow
fast
+/-
esc
set tempo
stop
Help us to improve Ultimate-Guitar.com Take our survey!
×
Author
Z.Z. TOP
      

[Verse]                    
 
e|-----|
B|-----|
G|----5|
D|3-5-5|
A|----3|
E|-----|



e|--------------------------|-------------------------|
B|------6--6--6--6----------|-------------------------|
G|-(5)--5--5--5--3----------|-------------------------|
D|-(5)--3--3--3--3----3--7--|-(7)--5--5-----5---------|
A|-(3)--3-----3--3----3--3--|-(3)--3--3--3--3---------|
E|--------------------------|-------------------------|



            ~~~~~~~~~~~~~~~~~~~~~~~~~~~~~
e|----8b10--8---------------|--------------8---------------8--|
B|----11----11--------------|----------------11-8-------------|
G|--------------------------|---------------------10b12-------|
D|--------------------------|---------------------------------|
A|--------------------------|---------------------------------|
E|--------------------------|---------------------------------|


       ~~~~~~~~~~~~~~~~~~~~~~~~~~~~~~~~~~
e|---------------------------|--------------8---------------8--|
B|-11B13---------------------|----------------11-8-------8-----|
G|---------------------------|---------------------10b12-------|x2
D|---------------------------|---------------------------------|
A|---------------------------|---------------------------------|
E|---------------------------|---------------------------------|



       ~~~~~~~~~~~~~~~~~~~~~~~~~~~~~~~~~~      I   got    to
e|---------------------------|--------------8---------------8--|
B|-11b13---------------------|----------------11-8-------8-----|
G|---------------------------|---------------------10b12-------|
D|---------------------------|---------------------------------|
A|---------------------------|---------------------------------|
E|---------------------------|---------------------------------|


  have   a  shot                                            of
    ~~~~~
e|--------------------------|----------------------------------|
B|--------------------------|----------------------------------|
G|--------------x-x-x-------|-5---------------5----------------|
D|-10---------------x-------|-5---------------5----------------|
A|------------------x-------|-3---------------3----------------|
E|--------------------8\----|----------------------------------|


  what you got its oh   so    sweet                    You got to
e|--------------------------|----------------------------------|
B|--------------------------|----------------------------------|
G|-5-----------5------------|-----------------5----------------|
D|-5-----------5------------|-5---------------5----------------|
A|-3-----------3------------|-3-----3----3----3----------------|
E|--------------------------|----------------------------------|


  make it hot                  like a boomerang I need a repeat  
e|-----------------|------------------|------------------------|
B|-----------------|------------------|------------------------|
G|-5---------------|-5-------5--------|-5----------------------|
D|-5-------5-------|-5-------5--------|-5--------5-------------|
A|-3-------3-------|-3-------3--------|-3--------3-------------|
E|-----------------|------------------|------------------------|

e|---------------------|
B|---------------------|
G|-5-------------------|
D|-5------5----0-0-----|
A|-3------3------------|
E|------------------8\-|


[Chorus]

  Gimme all your    All your hugs and
  lovin           kisses too
e|-----------------|-----------------|-----------------|-----------------|
B|-----------------|-----------------|-----------------|-----------------|
G|-----------------|-----------------|-5-------5-------|-5-------3-------|
D|-----------------|---------x-------|-5-------5-------|-5-------5-------|
A|-----------------|-----------3/6-3-|---------3-------|-3-------3-0-3-0-|
E|-----------------|-----------------|-----------------|-----------------|
rhythm

e|-----------------|-----------------|-----------------|-----------------|
B|-----------------|-6-6-6-6-6-6-6-6-|---6-6-6---------|-----------------|
G|-3-3-3-3-3-3-3-3-|-5-5-5-5-5-5-5-5-|-5-5-5-5-3-------|---5-5-5-5-5-5-5-|
D|-3-3-3-3-3-3-3-3-|-3-3-3-3-3-3-3-3-|-5-3-3-3-3---3-3-|-7-5-5-5-5-5-5-5-|
A|-1-1-1-1-1-1-1-1-|-----------------|-3-------3---3-3-|-3-3-3-3-3-3-3-3-|
E|-----------------|-----------------|-----------------|-----------------|



  Gimme all your    Don't let up until
  lovin                   we're through.                                You got
e|-----------------|-----------------|-----------------|-----------------|
B|-----------------|-----------------|-----------------|-----------------|
G|-----------------|-----------------|-5-------5-------|-5-------5-------|
D|-----------------|-----------------|-5-------5-------|-5-------5-------|
A|-----------------|---------3-3-6-3-|---------3-------|-3-------3----13\|
E|-----------------|-----------------|-----------------|-----------------|

e|-----------------|-----------------|-----------------|-----------------|
B|-3-----------3-3-|-1-1-1-1-1-1-1-1-|---6-6-6-3---6-6-|-----------------|
G|-3-3-3-3-3-3-3-3-|-2-2-2-2-2-2-2-2-|-5-5-5-5-3---5-5-|---------------5-|
D|-3-3-3-3-3-3-3-3-|-3-3-3-3-3-3-3-3-|-5-3-3-3-3---3-3-|-7-5-5-5-5-3-5-5-|
A|-1-1-1-1-1-1-1-1-|-3-3-3-3-3-3-3-3-|-3-------3---3---|-3-3-3-3-3-3-3-3-|
E|-----------------|-1-1-1-1-1-1-1-1-|-----------------|-----------------|



  whip it up                    and hit me like a ton
                                        of lead                       If I
e|-----------------|-----------------|-------------------|-----------------|
B|-----------------|-----------------|-------------------|-----------------|
G|-----------------|-------5---------|-5------5----------|-5-------5-------|
D|-----------5-----|-5-----5---------|-5------5----------|-5-------5-------|
A|---------333-----|-3-----3---------|-3------3----------|-3-------3-------|
E|-----------------|-----------------|-------------------|-----------------|

e|-----------------|-----------------|-------------------|-----------------|
B|---6-6-6-3-------|-----------------|----6-6-6-3--------|-----------------|
G|---5-5-5-3-------|-------5-5-------|----5-5-5-3--------|---------5---5-5-|
D|---3-3-3-3---3-3-|-7-5-5-5-5-------|----3-3-3-3----3-3-|-7-5-5-5-5---5-5-|
A|---3-3---3---3-3-|-3-3-3-3-3-------|------3---3----3-3-|-3-3-3-3-3---3-3-|
E|-----------------|-----------------|-------------------|-----------------|


  blow my top                      Will you let it go to your head?
e|-----------------|-----------------|-------------------|-----------------|
B|-----------------|-----------------|-------------------|-----------------|
G|-5-------5-------|-5-------5\3-----|-5--------5--------|---------5---0---|
D|-5-------5-------|-5-------5\3-----|-5--------5--------|-5-------5---00--|
A|-3-------3-------|-3-------3-------|-3--------3--------|-3-------3-33----|
E|-----------------|-----------------|-------------------|---------------15\|

e|-----------------|-----------------|-------------------|-----------------|
B|---6-6-6-3-------|-----------------|----6-6-6-3--------|-----------------|
G|-5-5-5-5-3-------|-----------------|----5-5-5-3--------|-----------------|
D|-5-3-3-3-3---3-3-|-7-5-5-5-5-------|----3-3-3-3----3-3-|-7-5-5-5-5-5-5-5-|
A|-3---3---3---3-3-|-3-3-3-3-3-------|------3---3----3-3-|-3-3-3-3-3-5-3-3-|
E|-----------------|-----------------|-------------------|-----------------|


  Gimme all your    All your hugs and
  lovin                    kisses too
e|-----------------|-----------------|-------------------|-----------------|
B|-----------------|-----------------|-------------------|-----------------|
G|-----------------|-----------------|-5--------5--------|-5-----3---------|
D|-----------------|---------x-------|-5--------5--------|-5-----5---------|
A|-----------------|-----------3/6-3-|-3--------3--------|-3-----3---0-3-0-|
E|-----------------|-----------------|-------------------|-----------------|

e|-----------------|-----------------|-------------------|-----------------|
B|-----------------|-6-6-6-6-6-6-6-6-|---6-6-6-----------|-----------------|
G|-3-3-3-3-3-3-3-3-|-5-5-5-5-5-5-5-5-|-5-5-5-5-3---------|---5-5-5-5-5-5-5-|
D|-3-3-3-3-3-3-3-3-|-3-3-3-3-3-3-3-3-|-5-3-3-3-3---3-3---|-7-5-5-5-5-5-5-5-|
A|-1-1-1--1-1--1-1-|-----------------|-3-------3---3-3---|-3-3-3-3-3-3-3-3-|
E|-----------------|-----------------|-------------------|-----------------|


  Gimme all your          Don't let up until 
  lovin           we're through
e|-----------------|-----------------|-------------------|-----------------|
B|-----------------|-----------------|-------------------|-----------------|
G|-----------------|-----------------|---------5\3-------|-5-----5---------|
D|-----------------|-----------------|-5-------3-----x-x-|-5-----5-------5-|
A|-----------------|-------3-6-3-6-66|-3-----------------|-3-----3-------5-|
E|-----------------|-----------------|-------------------|-----------------|

e|-----------------|-----------------|-----------------|-----------------|
B|-3-----------3-3-|-1-1-1-1-1-1-1-1-|---6-6-6-3---6-6-|-----------------|
G|-3-3-3-3-3-3-3-3-|-2-2-2-2-2-2-2-2-|-5-5-5-5-3---5-5-|-----------------|
D|-3-3-3-3-3-3-3-3-|-3-3-3-3-3-3-3-3-|-5-3-3-3-3---3-3-|-7-5-5-5-5-5-5-5-|
A|-1-1-1-1-1-1-1-1-|-3-3-3-3-3-3-3-3-|-3-------3---3---|-3-3-3-3-3-3-3-3-|
E|-----------------|-1-1-1-1-1-1-1-1-|-----------------|-----------------|


[Solo]

Rhythm repeats this for most of it

e|-----------------|
B|-----------------|
G|-----------------|
D|-5-5-5-5-5-5-5-5-|
A|-3-3-3-3-3-3-3-3-|
E|-----------------|


e|-----------------|-----------------|-------------------|
B|-----------------|-----------------|-----------------4-|
G|-3-3---3-3---3-3-|---3-3---3-5-----|---------3-----5---|
D|-3-3---3-3---3-3-|---3-3---3-5-6-5-|---5-5-5-------5---|
A|-----6b----6b----|-6b----6b----6-3-|---3-3-3-----------|
E|-----------------|-----------------|-------------------|

           ~~~~~
e|-----------------|-----------------|-------------------|
B|----4b-----------|----8------------|----------------3/5|
G|-------5-5--0-3/5|-----10\9--8b-10-|-8-8b-----------3/5|
D|------------0-3/5|---------------10|----8-10--------3/5|
A|-----------------|-----------------|-------------------|
E|-----------------|-----------------|-------------------|

                   ~~~~                 ~~~~               ~~~~~
e|--------------------|--------------------|--------------------|
B|---5------8---------|--------------------|--------------------|
G|-------------7/8-9--|-----------8b-8b----|-----------8b-8b----|
D|---5-5------------10|---8-10-10-------10-|---8-10-10------10--|
A|--------------------|-----10-10----------|-----10-10----------|
E|--------------------|--------------------|--------------------|

e|-------------------|----8-8-----8---8-8-|11b+bb-8----------------------|
B|-----5-6-6-5----/11|b-------11b---8-8-8-|10b+bb-8-8--------------------|
G|---5-5------5------|--------------------|-----------10bb----10bb-12b10-|
D|---5-5-7-7-5-------|--------------------|------------------------------|
A|-------------------|--------------------|------------------------------|
E|-------------------|--------------------|------------------------------|


e|------------------|----------------------|---------------------------|
B|------------------|----------------------|-----------------------0-9/|
G|h8-------8--------|----------------------|-------8---------------0-9/|
D|--------8---------|--------------10-8----|-8-------10----------------|
A|---10-10---10\8-6-|b7-----------------10-|---10----------------------|
E|------------------|-----8----------------|---------------------------|

e|----8------11-8------|---10-10-13----13-13-13\|11b12---------8-11b12----8----|
B|/10------------10-10/|12-12----12----12-12-12\|10b11---------8-10b11----8----|
G|/10---------------10/|12----------------------|------10b12----------------10-|
D|------10-------------|------------------------|------------------------------|
A|---------------------|------------------------|------------------------------|
E|---------------------|------------------------|------------------------------|

e|-----------------------|
B|-----8-------10--------|
G|-----8-8-10--10-8------|
D|-------------10---10---|
A|------------------10-0-|
E|-----------------------|

e|-----------------|---------------------|
B|-----------------|--------3-----3-3----|
G|---3-3---3-3---3-|-3----3-3-----3-3----|
D|---3-3---3-3---3-|-3----3-3-----3-3----|
A|-6-----6b----6b--|---6b-----6b------6b-|
E|-----------------|---------------------|


                                  ~~~~~~~~~
e|-----------------------|----------------------|
B|-----------------------|----------------------|
G|--------------3---3----|-5----8b--5---------0-|
D|--------------3-5----5-|-5-5----------------0-|
A|-------1/3----3--------|----------------------|
E|-8-88\3-----0----------|----------------------|

e|-----------------|---------------------|-------------------|
B|-----------------|--------3-----3-3----|----------------4--|
G|---3-3---3-3---3-|-3----3-3-----3-3----|----5-5-5-5---5----|
D|---3-3---3-3---3-|-3----3-3-----3-3----|-------------------|
A|-6-----6b----6b--|---6b-----6b---------|----3-3-3-3---3----|
E|-----------------|------------------11\|-------------------|


************************************

| x    Dead note
| (n)  Ghost note
| h    Hammer-on
| b    Bend
| /    Slide up
| \    Slide down

************************************
Suggest correction
comments
print report bad tab
3 comments total.
0 reply
jonesy22 10 Mar 03, 2005 12:00 AM

not a bad effort my man but you miss out a Bb5 which is inbetween F5 and C5 in the verse and the solo bits are slightly out. If you want the proper tab for it email me and if i got the time i will post it for ya.

0 reply
80'smetaladdict 565 Jul 18, 2008 11:15 PM

hard to follow and missing ending and some of the solos wrong to.

0 reply
80'smetaladdict 565 Jul 18, 2008 11:16 PM

read the one above this one.

guest
You may want to rate the tab now too:
select rating
Wanna post a correction for this tab? Suggest correction