Oops, an error
Loading. Please wait.

Gimme All Your Lovin Tab

version 4
version 4

Whole song

Interactive

70,335 views 177 this week
4 commentsread comments
1 2 3 4 5
excellent!
x 12
add to favorites
launch autoscroll
font size
0
reset
how to read this tab
guitar tuner
Tab Pro tools
  • play this tab
  • loop segment
  • change instrument
  • show fretboard
  • metronome
×
Best way to learn
"Gimme All Your Lovin"
Autoscroll
slow
fast
+/-
esc
set tempo
stop
Contributor
-------------------------------------------------------------------------------
Gimme All Your Lovin' - ZZ top
-------------------------------------------------------------------------------

Tabbed by: axe victim

Email: Leave a message on my  Ultimate Guitar  profile or comment 
here and I'll get back to you.

Another classic from the  Eliminator  album. I have tabbed the first 
guitar solo, I'll do the second one later.


Tuning: EADGBe

| /  slide up
| \  slide down
| h  hammer-on
| p  pull-off
| ~  vibrato or sustain
| +  harmonic
| *  pinch harmonic
| x  Mute note
| b  bend note
| ^  slight bend
| r  relax bend
|(3) optional note
|F/C chord/bass note 



Intro:  drums...

___________________________________________________________________ 

e|--------------------------------|--------------------------------|
B|--------------------------------|--------------------------------|
G|--------------------------------|--------------------------------|
D|--------------------------------|---------------------3---5------|
A|--------------------------------|-----------------------------3--|
E|--------------------------------|--------------------------------|


Main riff and intro:


___C___F/C_________Bb/C_________________C__________________________ 

e|--------------------------------|--------------------------------|
B|-----6---6---6------------------|--------------------------------|
G|-----5---5---5---3-----------3--|-----5---5-------5--------------|
D|-----------------3-----------3--|-----5---5-------5--------------|
A|(3)----------------------3------|---------3-------3-------3------|
E|--------------------------------|--------------------------------|

 | 1 - & - 2 - & - 3 - & - 4 - & -| 1 - & - 2 - & - 3 - & - 4 - & -|


___________________________________________________________________
 ( lead guitar during intro... )
e|--------------------------------|-----------------8-------------8-
B|-11b13~~~~~~~~~~~~~~~~~~~~~~~~~~~~~~~~~~~~~~~~~~~~--11-8------8--|
G|--------------------------------|------------------------10b12---|
D|--------------------------------|--------------------------------|
A|--------------------------------|--------------------------------|
E|--------------------------------|--------------------------------|



Main guitar riff continues during verse.  Palm-mute strings slightly 
during verses...


Verse:  

" I got to... "


___C_______________________________________________________________ 
 " have a shot                                              of...  
   what you got is oh so sweet.                         You got to...  
   make it hot,                                             like a... "
e|--------------------------------|--------------------------------|
B|--------------------------------|--------------------------------|
G|-5-----------5------------------|-5-----------5------------------|
D|-5-----------5------------------|-5-----------5------------------|
A|-3---3---3---3---3---3---3---3--|-3---3---3---3---3---3---3---3--|
E|--------------------------------|--------------------------------|


___C_______________________________________________________________ 
 " boomerang I need a repeat... "
e|--------------------------------|--------------------------------|
B|--------------------------------|--------------------------------|
G|-5-----------5------------------|-5-----------5------------------|
D|-5-----------5------------------|-5-----------5------------------|
A|-3---3---3---3---3---3---3---3--|-3---3---3---3---3---3--/8\-----|
E|--------------------------------|--------------------------------|



Chorus:


___Bb_______________________________F______________________________ 
 " Gimme  all your lovin'           all your hugs and kisses too... "
e|--------------------------------|--------------------------------|
B|--------------------------------|--------------------------------|
G|-3------------------------------|--------------------------------|
D|-3------------------------------|-3------------------------------|
A|-1------------------------------|-3-------------------3---6---3--|
E|--------------------------------|-1---------------5b6------------|


___C___F/C_________Bb/C_________________C__________________________ 

e|--------------------------------|--------------------------------|
B|-----6---6---6------------------|--------------------------------|
G|-----5---5---5---3-----------3--|-----5---5-------5--------------|
D|-----------------3-----------3--|-----5---5-------5--------------|
A|(3)----------------------3------|---------3-------3------/8\-----|
E|--------------------------------|--------------------------------|


___Bb_______________________________F______________________________ 
 " Gimme  all your lovin'           don't   let   up  until     we're... "
e|--------------------------------|--------------------------------|
B|--------------------------------|--------------------------------|
G|-3------------------------------|--------------------------------|
D|-3------------------------------|-3------------------------------|
A|-1------------------------------|-3-------------------3---6---3--|
E|--------------------------------|-1---------------5b6------------|


___C___F/C_________Bb/C_________________C__________________________ 
 " through... "
e|--------------------------------|--------------------------------|
B|-----6---6---6------------------|--------------------------------|
G|-----5---5---5---3-----------3--|-----5---5-------5--------------|
D|-----------------3-----------3--|-----5---5-------5--------------|
A|(3)----------------------3------|---------3-------3--------------|
E|--------------------------------|--------------------------------|



Riff 2:


___Bb______________________________________________________________ 

e|--------------------------------|--------------------------------|
B|--------------------------------|--------------------------------|
G|-3---3-------3---3-------3---3--|-----3---3-------3---5----------|
D|-3---3-------3---3-------3---3--|-----3---3-------3---5----------|
A|---------6b7---------6b7--------|-6b7---------6b7---------6b7-3--|
E|--------------------------------|--------------------------------|



Guitar solo: ( rhythm chords in brackets... )


___C_(x35xxx)______________________________________________________ 
 ( lead guitar... )
e|--------------------------------|--------------------------------|
B|-----------------------------4^-|-----4^-------------------------|
G|-----------------3-----5--------|---------5-------5~~~~~~~~~--3~~~
D|--------------------------------|--------------------------------|
A|-3-------3---3------------------|--------------------------------|
E|--------------------------------|--------------------------------|


___C_(x35xxx)______________________________________________________ 
                      ( * pinch harmonics * )
e|--------------------------------|--------------------------------|
B|---------6------*4^------6------|-4^-*4^-------------------------|
G|h5~~~~~~~5-------------------5--|---------3--*5~~~~~~~~~~~\------|
D|-----5~~~-----------------------|--------------------------------|
A|--------------------------------|--------------------------------|
E|--------------------------------|--------------------------------|


___C_(x35xxx)______________________________________________________ 

e|--------------------------------|--------------------------------|
B|/5-----5-----6b7-----4/5--------|-----------------4---4----------|
G|/5-----5-5-------------------5--|-----5---3---------------5------|
D|/5-----5------------------------|-------------5------------------|
A|--------------------------------|--------------------------------|
E|--------------------------------|--------------------------------|


___C_(x35xxx)______________________________________________________ 

e|--------------------------------|-----8---8-------8-------8------|
B|-------------6---5-----------11b13~~~-------11b13-----8----------|
G|-----5---------------5----------|--------------------------------|
D|-----5---5h7---------5----------|--------------------------------|
A|--------------------------------|--------------------------------|
E|--------------------------------|--------------------------------|


___F_(13xxxx)_______________________G_(35xxxx)_____________________ 

e|---------8----------------------|--------------------------------|
B|-11b13-------8--------8---------|--------------------------------|
G|----------------10b12----10^~~~~~r10-p8~~~-----------------------|
D|--------------------------------|-----------------8---8----------|
A|--------------------------------|---------10--10---------10\8-6~~~~
E|--------------------------------|--------------------------------|


___C_(x35xxx)______________________________________________________ 

e|--------------------------------|--------------------------------|
B|--------------------------------|-----------------------------8~~~
G|-------------------5~~~~~-------|---------8---5~~~~~~~~~~~~~~~8~~~
D|-----------------x-------8---5--|-8---5--------------------------|
A|~~~~~~~~------------------------|--------------------------------|
E|---------8----------------------|--------------------------------|


___F_(13xxxx)_______________________G_(35xxxx)_____________________ 

e|-----8-----------11^------------|-----10----------13--13--13--13-|
B|/10------10--------------10--10~~/12------12------12--12--12--12-|
G|/10------10--------------10--10~~/12------12------12--12--12--12-|
D|--------------------------------|--------------------------------|
A|--------------------------------|--------------------------------|
E|--------------------------------|--------------------------------|


___C_(x35xxx)______________________________________________________ 

e|-11-p8-------8-----------8------|--------------------------------|
B|---------8-------11b13~~~-------|-8~~~~~~~-----------------------|
G|-----------------------------10^------8~~~----10--8--------------|
D|--------------------------------|---------10--10--8---10~~~~~~~--|
A|--------------------------------|--------------------------------|
E|--------------------------------|--------------------------------|



Riff 2:


___Bb______________________________________________________________ 

e|--------------------------------|--------------------------------|
B|--------------------------------|--------------------------------|
G|-3---3-------3---3-------3---3--|-----3---3----------------------|
D|-3---3-------3---3-------3---3--|-----3---3-------3---5----------|
A|---------6b7---------6b7--------|-6b7---------6b7---------6b7-3--|
E|--------------------------------|--------------------------------|


Repeat riff 2.

Repeat verse.

Repeat chorus.

Repeat riff 2.


Second solo:

___C_______________________________________________________________ 

e|--------------------------------|--------------------------------|
B|--------------------------------|--------------------------------|
G|--------------------------------|-----------------------------8--|
D|--------------------------------|-----------------------------8--|
A|--------------------------------|--------------------------------|
E|--------------------------------|--------------------------------|


___C_______________________________________________________________ 
             ( / & \ = slide up, slide down )
e|--------------------------------|--------------------------------|
B|--------------------------------|--------------------------------|
G|-8~~/10~~~~~~\---------------8^-|-----8^-------------------------|
D|-8~~/10~~~~~~\---8~~~~~~~10-----|---------10~~----10~~~----------|
A|-----------------8~~~~~~~10-----|-------------------------10-----|
E|--------------------------------|-------------------------8------|

 | 1 - & - 2 - & - 3 - & - 4 - & -| 1 - & - 2 - & - 3 - & - 4 - & -|


___C_______________________________________________________________ 
  ( ^ = slight bend, quarter tone, pull string down to sharpen it )
e|--------------------------------|--------------------------------|
B|--------------------------------|--------------------------------|
G|-----------------8^----8^-------|-------------8------------------|
D|-8~~~~10~10~~~8--------------10~~~~~~~10--8----------------------|
A|-8~~~~10~10~~~8-----------------|---------------10s8~~6----------|
E|--------------------------------|-------------------------8---8--|


___C_______________________________________________________________
03:12         ( ~~~ = sustain and/or vibrato )
e|--------------------------------|--------------------------------|
B|--------------------------------|--------------------------------|
G|-----------------8^~~-----------|-----------------8^--8^---------|
D|-----8---10--10----------10--8~~~~~~~~10--10--10----------10~~~--|
A|-----8---10--10----------10--8~~~~~~~~10--10--10-----------------|
E|--------------------------------|--------------------------------|


Some pinch harmonics here ( * ) hit string with pick and thumb,
when you get it right it squeals! 


___C_______________________________________________________________ 
03:15   ( * = pinch harmonic )
e|--------------------------------|--------------------------------|
B|--------------------------------|--------------------------------|
G|--------------------------------|--------------------------------|
D|-----8*--10*-----8*--8*--10--8-~~~~~~~10-------------------------|
A|-----------------------------8-~~~~~~~10------6---8---8-----6*8^p6~
E|--------------------------------|---------8----------------------|


Double stops; two notes at the same time. Try using one finger
to hold both strings.


___C_______________________________________________________________ 
03:20
e|--------------------------------|--------------------------------|
B|--------------------------------|--------------------------------|
G|--------------------------------|-----------------10--10---------|
D|---------8---10--8-------10--8~~~~~~~10---10--8---10--10--10~~---|
A|---------8---10--8-------10--8~~~~~~~10---10--8-----------10~~---|
E|-8~-----------------------------|--------------------------------|

 | 1 - & - 2 - & - 3 - & - 4 - & -| 1 - & - 2 - & - 3 - & - 4 - & -|


___C_______________________________________________________________ 
03:24
e|--------------------------------|--------------------------------|
B|--------------------------------|--------------------------------|
G|-------------------------8---8^~~-------------------------10^~~~~~
D|-----8---10--8---10--10--8-----------10---8~~~8~~~~~~~8~~~10^~~~~~
A|-----8---10--8---10--10-------------------8~~~8~~~~~~~8~~~-------|
E|--------------------------------|--------------------------------|


___C_______________________________________________________________ 
03:28
e|-------------------------8------|-----8---8---8-------8---8---8--|
B|-------------------------8---8~~~~----8---8---8---8~~~8---8---8--|
G|-10^-----8-------10^---------10b12----------------10b12----------|
D|-10^-----8-------10^------------|--------------------------------|
A|--------------------------------|--------------------------------|
E|--------------------------------|--------------------------------|


___C_______________________________________________________________ 

e|-8---8-----------8-------8------|-8-------------8----------------|
B|-8---8---8~~~~---8-------8------|-8-10-8--10^-8-8----------------|
G|---------10b12------------------|---10-8--10^-8---10-8-10-8----8-|
D|--------------------------------|-----------------10-8-10-8-10-8-|
A|--------------------------------|---------------------------10---|
E|--------------------------------|--------------------------------|


___C_______________________________________________________________ 
03:33
e|--------------------------------|--------------------------------|
B|-----------------------------4^-|-----4^-------------------------|
G|-8---10--10\-----3-----5--------|-----------------5~~~----5~~~---|
D|-8---10--10\-----3-----5--------|-----------------5~~~----5~~~---|
A|--------------------------------|--------------------------------|
E|--------------------------------|--------------------------------|

 | 1 - & - 2 - & - 3 - & - 4 - & -| 1 - & - 2 - & - 3 - & - 4 - & -|


___C_______________________________________________________________ 
03:37
e|--------------------------------|--------------------------------|
B|-------------------------4^-----|--------------------------------|
G|-----3~~~----5---5---5----------|-5-----3-----5---3*~~~~~-3*~~~~-|
D|-----3~~~----5---5---5----------|-5-----3-----5------------------|
A|--------------------------------|--------------------------------|
E|--------------------------------|--------------------------------|


___C_______________________________________________________________ 
03:41                 ( * = pinch harmonic )
e|--------------------------------|--------------------------------|
B|--------------------------------|--------------------------------|
G|--------------------------------|--------------------------------|
D|-1*-----------------------------|--------------------------------|
A|-----3*~~~~------1*------1*-----|-3*------3*~~~~~~--------1*-----|
E|---------------------3*---------|-----------------------------3*-|


___C_______________________________________________________________ 
03:44
e|--------------------------------|--------------------------------|
B|--------------------------------|--------------------------------|
G|--------------------------------|--------------------------------|
D|--------------------------------|--------------------------------|
A|-1*--3*--3*--3*~~~~~~----1*-----|-1*--3*--3*--3*~~----3*--3*--3*~~
E|-----------------------------3*-|--------------------------------|

 | 1 - & - 2 - & - 3 - & - 4 - & -| 1 - & - 2 - & - 3 - & - 4 - & -|


___C_______________________________________________________________ 
                                      ( repeat and fade out... )
e|--------------------------------|--------------------------------|
B|--------------------------------|--------------------------------|
G|--------------------------------|--------------------------------|
D|--------------------------------|--------------------------------|
A|-----1*--3*--3*~~----1---3---3~~~-----1---3---3~~~----1---3---3~~~
E|--------------------------------|--------------------------------|




lyrics:

 
I've got to have a shot of what you've got, 
it's oh so sweet.
You've got to make it hot, 
Like a boomerang I need a repeat...

Gimme all your lovin', all your hugs and kisses too,
Gimme all your lovin', don't let up until we're through,

You've got to whip it up 
and hit me like a ton of lead,
If I blow my top will you let it go to your head?

Gimme all your lovin', all your hugs and kisses too,
Gimme all your lovin', don't let up until we're through.

You got to move it up 
and use it like a screwball would.
You got to pack it up, 
work it like a new boy should.

Gimme all your lovin', all your hugs and kisses too.
Gimme all your lovin', don't let up until we're through. 


Words and music by ZZ Top
comments
print report bad tab
4 comments total. Showing first comments.
0 reply
Fepo wrote on January 21 2016, 07:46 am

Great TAB and big thanx for this stuff :)

0 reply
axe victim wrote on January 21 2016, 10:11 am, edited at 10:12 am

@Fepo - No problem dude, glad the tab was helpful and thanks for taking the time to comment. cheers, axe

0 reply
franzdorf wrote on February 9 2016, 08:51 pm

Thanks! Great tab.

I want to post or [tab]
guest
You may want to rate the tab now too:
select rating
Please do not post tabs as comments. Select "correction" instead!