Oops, an error
Loading. Please wait.

Got Me Under Pressure Tab

version 1
version 1

Whole song

Interactive

1,398,476 views 3 this week
2 commentsread comments
1 2 3 4 5
worth learning
x 6
add to favorites
launch autoscroll
font size
0
reset
how to read this tab
guitar tuner
Tab Pro tools
  • play this tab
  • loop segment
  • change instrument
  • show fretboard
  • metronome
×
Best way to learn
"Got Me Under Pressure"
Autoscroll
slow
fast
+/-
esc
set tempo
stop
#----------------------------------PLEASE NOTE---------------------------------#
#This file is the author's own work and represents their interpretation of the #
#song. You may only use this file for private study, scholarship, or research. #
#------------------------------------------------------------------------------##
From: mhermans@sal-sun6.usc.edu (Martin Hermans)
Subject: TAB: Got Me Under Pressure by ZZ Top

Here is the beginning of Got Me Under Pressure 

---------------|
---------------|
-9-9\7---9-9\7-|
-9-9\7-7-9-9\7-|
-------7-------|
---------------|

-----------------|---------------|
-----------------|---------------|
-----------------|---9\7---9-9\7-|      repeat this a few times
-9---9-9-9---9-9-|-9-9\7-7-9-9\7-|
-7---7-7-7---7-7-|-7-----7-------|
-----------------|---------------|
(palm mute this E5)


--------------|--------------------|
--------------|--------------------|
--------------|--------------------|
-0---0------0-|--0-----------------|    then repeating this four times brings
-0---0------0-|--0-------------2---|    you up to the first verse
--------------|------0--0--3-------|

If anyone wants another part of this song  ( one of the solos, the rhythm
guitars, or the verse leads, etc) just mail me at hermans@usc.edu


comments
print report bad tab
2 comments total.
0 reply
metal_swayne wrote on October 19 2006, 03:08 am

not in depth at all

0 reply
-metalhead- wrote on May 29 2008, 03:30 pm

Uhm, seriously? Did you post this? What's the point?

I want to post or [tab]
guest
You may want to rate the tab now too:
select rating
Please do not post tabs as comments. Select "correction" instead!