Oops, an error
Loading. Please wait.

Got Me Under Pressure Bass Tab

version 2
version 2

Whole song

Interactive

709 views 3 this week
no commentswrite comment
1 2 3 4 5
please rate
add to favorites
launch autoscroll
font size
0
reset
guitar tuner
Autoscroll
slow
fast
+/-
esc
set tempo
stop
Help us to improve Ultimate-Guitar.com Take our survey!
×
Author
Difficulty
intermediate
credit to songsterr for sheet music/tabs

Intro - 
G|------------|--------|X4|------------|------------|X2
D|-2--222--22-|-2------|X4|-2--222--22-|-2--222--22-|X2
A|------------|--------|X4|------------|------------|X2
E|------------|--------|X4|------------|------------|X2

Rest 4 bars

Pre Chorus/Verse? - Weird timing but just listen.
G|------------|----------------|X3|------------|--------|
D|-2--222--22-|-2--2-2-2---0-1-|X3|-2--222--22-|-2------|
A|------------|----------3-----|X3|------------|--------|
E|------------|----------------|X3|------------|--------|

Chorus - 
G|-------------|--------2---2---|------------|----------------|
D|-2--222--22~-|--2---2---------|-2--222--22-|-2----------0-1-|
A|-------------|----------------|------------|----------3-----|
E|-------------|----------------|------------|----------------|

Verse 2 - 
G|------------|----------------|X9|------------|--------|
D|-2--222--22-|-2--2-2-2---0-1-|X9|-2--222--22-|-2------|
A|------------|----------3-----|X9|------------|--------|
E|------------|----------------|X9|------------|--------|

Chorus 2 - 
G|-------------|--------2---2---|------------|-------|
D|-2--222--22~-|--2-2-2---------|-2--222--22-|-2-----|
A|-------------|----------------|------------|-------|
E|-------------|----------------|------------|-------|

Break - rest a bar after chorus - 
G|------------|------------|------------|----------------|X7
D|-2--222--22-|-0--000--00-|-2--222--22-|-2--2-2-2---0-1-|X7
A|------------|------------|------------|----------3-----|X7
E|------------|------------|------------|----------------|X7

G|------------|------------|------------|----------|
D|-2--222--22-|-0--000--00-|-2--222--22-|-2--2-----|
A|------------|------------|------------|----------|
E|------------|------------|------------|----------|

- rest 3 bars after break - 
G|-------------|-----------|-------------|-----------|
D|-2--222--22~-|---222--22-|-4--444--44~-|--4444--44-|
A|-------------|-----------|-------------|-----------|
E|-------------|-----------|-------------|-----------|

G|-------------|-----------|-2--222--22~-|--2222--22-|
D|-2--222--22~-|--2222--22-|-------------|-----------|
A|-------------|-----------|-------------|-----------|
E|-------------|-----------|-------------|-----------|

G|-------------|-----------|-------------|------------|
D|-4--444--44~-|--4444--44-|-2--222--22~-|--2---4444--|
A|-------------|-----------|-------------|------------|
E|-------------|-----------|-------------|------------|

- rest a bar - 
G|-------------|------2-2-|------------|----------------|X2
D|-2--222--22~-|---222----|-2--222--22-|-2--2-2-2---0-1-|X2
A|-------------|----------|------------|----------3-----|X2
E|-------------|----------|------------|----------------|X2

G|-------------|------------|------------|----------------|X7
D|-2--222--22~-|-0--000--00-|-2--222--22-|-2--2-2-2---0-1-|X7
A|-------------|------------|------------|----------3-----|X7
E|-------------|------------|------------|----------------|X7

G|-------------|------------|------------|--------|
D|-2--222--22~-|-0--000--00-|-2--222--22-|-2--2---|
A|-------------|------------|------------|--------|
E|-------------|------------|------------|--------|

- rest 3 bars - 
G|-------------|-----------|-------------|-----------|
D|-2--222--22~-|---222--22-|-4--444--44~-|--4444--44-|
A|-------------|-----------|-------------|-----------|
E|-------------|-----------|-------------|-----------|

G|-------------|-----------|-2--222--22~-|--2222--22-|
D|-2--222--22~-|--2222--22-|-------------|-----------|
A|-------------|-----------|-------------|-----------|
E|-------------|-----------|-------------|-----------|

G|-------------|-----------|
D|-4--444--44~-|--4444--44-|
A|-------------|-----------|
E|-------------|-----------|

Thats it, enjoy, apologies for length, but there were variations here and there.
Suggest correction
Give kudos to tab author, rate the tab!
1 2 3 4 5
comments
print report bad tab
guest
You may want to rate the tab now too:
select rating
Please do not post tabs as comments. Select "correction" instead!