Oops, an error
Loading. Please wait.

Just Got Paid Tab

version 1
version 1

Intro

Whole song

Interactive

by ZZ Top
36,087 views 15 this week
4 commentsread comments
1 2 3 4 5
x 8
add to favorites
launch autoscroll
font size
0
reset
how to read this tab
guitar tuner
backing track
0:00
0:00
×
Best way to learn
"Just Got Paid"
Autoscroll
slow
fast
+/-
esc
set tempo
stop
Tuning: Standard e a d g b e

[Intro]
e|----------------------------------------------------------------------------------|
B|----------------------------------------------------------------------------------|
G|----------------------------------------------------------------------------------|
D|--------------------5----------------------------------2--------------------------|
A|------5----7------------------7-------5-----5-------------------------------------|
E|--------------0----------0--------0-------------3p0-------------------------------|



************************************

| p  Pull-off

************************************
Suggest correction
comments
print report bad tab
4 comments total. Showing first comments.
0 reply
Tone-bender 10 Dec 25, 2005 12:02 PM

OK, thanks for the TAB, but it is NOT 100% accurate. Billy Gibbons plays a lot of riffs in the 1st position, this being one of them. If you want the real vibe, learn to play it in the first position. Yes it's tough string crossing, but with practice it can be done.

0 reply
msshirk 31 Feb 23, 2006 03:43 PM

sounds nothing like it

0 reply
col1955 53 Aug 17, 2014 05:59 AM

It's probably easier to play in the first position, but if you really want to be 100% accurate, Billy plays it in open E tuning, as below.

e |-------------------------------|
B |-------------------------------|
G#|-------------------------------|
E |-----------3-------------------|
B |---3---5--------5-3-5------5---|
E |-----0---0---0--------3(b)-----|
Check here to watch him play it. It's a great version from 1980
https://www.youtube.com/watch?v=6c7d8BYJy8I

guest
You may want to rate the tab now too:
select rating
Wanna post a correction for this tab? Suggest correction