Oops, an error
Loading. Please wait.

La Grange Bass

version 1
version 1

Whole song

Interactive

by ZZ Top
1,434,776 views 174 this week
3 commentsread comments
1 2 3 4 5
x 29
add to favorites
launch autoscroll
font size
0
reset
guitar tuner
backing track
0:00
0:00
×
Best way to learn
"La Grange"
Autoscroll
slow
fast
+/-
esc
set tempo
stop
ZZ Top - "La Grange" - Bass Tab

Riff 1:

G|-----------------------|
D|*---------------------*|
A|*-0-0-0-0-0-0-0-3-5-3-*|
E|-----------------------|
   1 & 2 & 3 & a 4 & a

Riff 2:

G|-----------------------|
D|*---------------1-3-1-*|
A|*-3-3-3-3-3-3-3-------*|
E|-----------------------|
   1 & 2 & 3 & a 4 & a

Riff 3:

G|----------|-------------2----|
D|*---------|-----------------*|
A|*---------|-----0-0-3-3-----*|
E|--3-R-2-R-|-1-R-----------r--|
   1 2 3 4   1 2 3 e & a 4 &

Riff 4(end):

G|-----------------------|
D|*---------------------*|
A|*-0-3-0-3-0-3-0-3-5-3-*|
E|-----------------------|
   1 & 2 & 3 & a 4 & a

************************************

| r  Release
 
************************************
Suggest correction
comments
print report bad tab
3 comments total.
+3 reply
Robnfguitarplay 42 Jun 28, 2006 08:36 AM

Riff 1:
|-----------------------|
|*---------------------*|
|*-0-0-0-0-0-0-0-3-5---*|
|-----------------------|

+2 reply
fillin 10 Jul 03, 2007 04:35 PM

Riff 2:
|-----------------------|
|*---------------1-3---*|
|*-3-3-3-3-3-3-3-------*|
|-----------------------|

0 reply
one-lover-punk 12 Apr 18, 2017 06:05 PM

Riff 4(end):

G|-----------------------|
D|*---------------------*|
A|*-0-3-0-3-0-3-0-3-5---*|
E|-----------------------|

guest
You may want to rate the tab now too:
select rating
Wanna post a correction for this tab? Suggest correction