Oops, an error
Loading. Please wait.

La Grange Bass Tab

version 1
version 1

Whole song

Interactive

1,429,046 views 138 this week
2 commentsread comments
1 2 3 4 5
accurate
x 19
add to favorites
launch autoscroll
font size
0
reset
guitar tuner
Autoscroll
slow
fast
+/-
esc
set tempo
stop
Help us to improve Ultimate-Guitar.com Take our survey!
×
ZZ Top - "La Grange" - Bass Tab

Riff 1:

G|-----------------------|
D|*---------------------*|
A|*-0-0-0-0-0-0-0-3-5-3-*|
E|-----------------------|
   1 & 2 & 3 & a 4 & a

Riff 2:

G|-----------------------|
D|*---------------1-3-1-*|
A|*-3-3-3-3-3-3-3-------*|
E|-----------------------|
   1 & 2 & 3 & a 4 & a

Riff 3:

G|----------|-------------2----|
D|*---------|-----------------*|
A|*---------|-----0-0-3-3-----*|
E|--3-R-2-R-|-1-R-----------r--|
   1 2 3 4   1 2 3 e & a 4 &

Riff 4(end):

G|-----------------------|
D|*---------------------*|
A|*-0-3-0-3-0-3-0-3-5-3-*|
E|-----------------------|
   1 & 2 & 3 & a 4 & a

************************************

| r  Release
 
************************************
Suggest correction
comments
print report bad tab
2 comments total.
+3 reply
Robnfguitarplay 42 wrote on June 28 2006, 12:36 pm

Riff 1:
|-----------------------|
|*---------------------*|
|*-0-0-0-0-0-0-0-3-5---*|
|-----------------------|

+2 reply
fillin 10 wrote on July 3 2007, 08:35 pm

Riff 2:
|-----------------------|
|*---------------1-3---*|
|*-3-3-3-3-3-3-3-------*|
|-----------------------|

guest
You may want to rate the tab now too:
select rating
Wanna post a correction for this tab? Suggest correction