Oops, an error
Loading. Please wait.

La Grange Tab

version 3
version 3

Whole song

Interactive

Video

1,145,175 views 2,088 this week
63 commentsread comments
1 2 3 4 5
x 217
add to favorites
launch autoscroll
font size
0
reset
how to read this tab
guitar tuner
Autoscroll
slow
fast
+/-
esc
set tempo
stop
Help us to improve Ultimate-Guitar.com Take our survey!
×
Author
Tuning
E A D G B E
[Verse]

guitar 1 (clean)
|------------------------------------|
|------------------------------------|
|-2-2--2--2--2--2---------5-----5b---|
|-2-2--2--2--2--2----5----2-----2----|
|------------------0---0-----0-------|
|------------------------------------|
 
after a while guitar 2 plays this: 
|--------------------------|
|--------------------------|
|-2-2--2--2--2--2----------|
|-2-2--2--2--2--2----------|
|-0-0--0--0--0--0----3--5--|
|--------------------------|

during Solo Guitar 1 plays:         or    this also sounds ok, but is incorrect:
|---------------------------------|    |---------------------------------------|
|---------------------------------|    |---------------------------------------|
|---------------------------------|    |--------------------------------8--10--|
|-10--10--10--10-----8-----10-----|    |----10-10--10--10--10--10---10--8--10--|
|-10--10--10--10-----6-----8------|    |----10-10--10--10--10--10---10---------|
|-----------------8-----8------8--|    |---------------------------------------|


[Solo]

|----------8----------------------------------|
|-11b~-------11-8-11p8----8-------------------|
|----------------------10----8-------10-8-----|
|--------------------------------10-------10--|
|---------------------------------------------|
|---------------------------------------------|

|---------------------------------|---------------------------|
|---------------------------------|---------------------------|
|--10-----------------------------|---------------------------|
|-----10~---------8---------------|--10~----------8-----------|
|------------8h10---10\8--6--8--6-|---------8h10-----10\8--6--|
|---------------------------------|---------------------------|

|----------------------------------------------|------------------------|
|----------------------------------------------|------------------------|
|---------8*---x-------------------------------|------------------------|
|-10--10---------x--------8--------------------|-------8----------------|
|-------------------8h10----10\8--6--8--6------|-8/10----10\8--6--8--6--|
|-----------------------------------------8--8-|------------------------|

|-------------------------|-----------------------------------|----------------------|
|-------------------------|-11----11----11-----11\------------|----------------------|
|------------------10/11--|----12----12----12------10--8B-----|----------------------|
|--/10--10~-----10--------|--------------------------------10-|-------8--------------|
|-------------------------|-----------------------------------|--8h10----8--6--8--6--|
|-------------------------|-----------------------------------|----------------------|

|----------------------------|-------------------------|---------------------------------------|
|----------------------------|-------------------------|---------------------------------------|
|----------------------------|----------------10--8b---|-------------------8*----8*~-----------|
|----------------------------|-------8-----10----------|-10~---10--8--10-----------------8-----|
|-----------6-----6--8p6--8--|-8/10-----10-------------|-----------------------------------10--|
|-8---8-6h8----8-------------|-------------------------|---------------------------------------|

|--------------------|---------------------------|--------------------------------|
|--------------------|------11--11--11--------11-|--11--10/11--11-----------------|
|-8*----8--8---------|-8/12------------10\12-----|--12--11/12-----12\10--8--10-*--|
|-------------10~----|---------------------------|--------------------------------|
|--------------------|---------------------------|--------------------------------|
|--------------------|---------------------------|--------------------------------|

|-----8-----------------------------|-------------------------------|-----------------------|
|--8-----11p8-----8-----------------|-------------------------------|-----------------------|
|--------------10---8----10--10---8-|-------------------------------|-----------------------|
|---------------------10------------|------8------------------------|-------8--8--8------8--|
|-----------------------------------|-8h10----10-10--9-\6-----------|---/10----------10-----|
|-----------------------------------|----------------------8--8--6--|-8---------------------|

|---------------------------|------------------------------------|----------------------------|
|------------------------11-|-------11----11----11----11----11\--|-----11----11---------------|
|------------8----10/12-----|*--/12----12----12----12----12-----*|-/12----12----\10--8--------|
|-10-10--10----10-----------|*----------------------------------*|---------------------10--8--|
|---------------------------|-------------(4 times)--------------|----------------------------|
|---------------------------|------------------------------------|----------------------------|

|--------------------------|-------------------------------|---------------------------------|
|--------------11----11----|-11----11----11-----11----11\--|-----11----11----11----11----11\-|
|----------/12----12----12-|----12----12----/12----12------|-/12----12----12----12----12-----|
|-10~----------------------|-------------------------------|---------------------------------|
|--------------------------|-------------------------------|---------------------------------|
|--------------------------|-------------------------------|---------------------------------|

|--------------------------------|-------------------------------|-----------------|
|-----11-----11-----11--11-------|-11--------11------------------|--------8--10----|
|-/12----/12----/12---------/12--|----10/12-----/10--8-----------|---8h9-----------|
|--------------------------------|------------------------10~----|-----------------|
|--------------------------------|-------------------------------|-----------------|
|--------------------------------|-------------------------------|-----------------|


[Interlude]
(guitars 1 & 2)
|-------5---5---5-|-----5---5---5-|-----5---5---5----------------------|
|-----------------|---------------|------------------------------------|
|.----------------|---------------|---------------------------2-------.|
|.--4/5---5---5---|-3/4---4---4---|-2/3---3---3---------------2-------.|
|-----------------|---------------|-----------------0--0--3h4-----0----|
|-----------------|---------------|------------------------------------|


[Outro solo]

|------------------|-------------------------|----------------------|
|------------------|-------------------------|----------8*----8*----|
|-----5------------|-7*-------5--------------|----------------------|
|--7-----7p5h7-----|-------------7~----------|----------------------|
|------------------|-------------------------|----------------------|
|------------------|-------------------------|----------------------|

|---------------|-------------------|---------------------------|
|-8*---8*-~~r5--|-8--8*-~---8*--r5--|-8-------------------------|
|---------------|-------------------|----7*----7--5*----7--5*---|
|---------------|-------------------|---------------------------|
|---------------|-------------------|---------------------------|
|---------------|-------------------|---------------------------|

|------------------|----------------------|-----------------------|
|------------------|--5--8----------------|-----------------------|
|----------5--7*---|---------7*----7--5*--|--5*----------5--7*----|
|--7~--------------|----------------------|-------7~--------------|
|------------------|----------------------|-----------------------|
|------------------|----------------------|-----------------------|

|---------------------------|-----------------------|--------------------------|
|---------------------------|-----------------------|--------------------------|
|--7*---7*---7*---7*---7*---|--7*----5--------------|-------5*----7---5--7*----|
|---------------------------|-----------------7--5--|-7--7---------------------|
|---------------------------|-----------------------|--------------------------|
|---------------------------|-----------------------|--------------------------|

|----------------------------|---------------------------------8B----|
|----------------------------|------8--10*--------8---10--10---------|
|--7*--r5--7---5*--r---------|--/9-----------------------------------|
|---------------------7~-----|---------------------------------------|
|----------------------------|---------------------------------------|
|----------------------------|---------------------------------------|

|----8---------------|---------------------------|------------------------5-|
|--------10----------|--8------------------------|------------------8--7----|
|---------------7/9--|-----\7---5--7*-----7---5--|---------------5----------|
|--------------------|---------------------------|--7~------5h7-------------|
|--------------------|---------------------------|--------------------------|
|--------------------|---------------------------|--------------------------|

|------------------------|-----------------------|------------------------|
|---7---5b---------------|-----------------------|------------------------|
|-----------7*-----5*----|-----------------------|------------------------|
|------------------------|--7-----5b-------------|------------------------|
|------------------------|-----7------7\5----3b--|--5-----3b---5-----3b---|
|------------------------|-----------------------|-----5----------5-------|

|--------------------------|-----------------------|----------------------|
|--------------------------|-----------------------|----------------------|
|-----5b-----7*--r--5b-----|--7--5b--7~----5--7*---|--7*---7*---7*---7*---|
|--7------7-------------7--|---------------5-------|----------------------|
|--------------------------|-----------------------|----------------------|
|--------------------------|-----------------------|----------------------|

|---------------------|---------------------|--x-----------------|
|---------------------|---------------------|--x-----------------|
|-7*---7*---7*---7*---|-7*---7*---7*---7*---|--x--7*---7*---7*---|
|---------------------|---------------------|--------------------|
|---------------------|---------------------|--------------------|
|---------------------|---------------------|--------------------|

|-------------------------|------------------------|-----5---------------------|
|-------------------------|---------------------5--|---------10~------10---10--|
|--7*---7*---7*---7*---5--|----------------5h6-----|---------------------------|
|-------------------------|--7---7~----------------|---------------------------|
|-------------------------|------------------------|---------------------------|
|-------------------------|------------------------|---------------------------|

|---8B------8---8--|--x--------------------------|------------------5----|
|------------------|-----10~-----8\5-------------|-------------5h6-------|
|------------------|------------------7--5h7--5--|-----------------------|
|------------------|-----------------------------|-7~--------------------|
|------------------|-----------------------------|-----------------------|
|------------------|-----------------------------|-----------------------|

|--5-----------------------|--8------------8-------------|
|--5--8~---------------8---|--8------------8-----7---5---|
|-----------------/9---9---|--9--------9---9-----7---5---|
|----------------------10--|-----------10----------------|
|--------------------------|-----------------------------|
|--------------------------|-----------------------------|


[Fade]

|------------------------------|-----7/8\7---8-----------|----------------|
|---5--5-----------------------|-----7/8\7---8-----------|----------------|
|---5--5-----------------------|-----8/9\8---9---/7--5---|--7*--r5--7*----|
|----------7--5----------------|-------------------------|----------------|
|----------------7--6--5-------|--0----------------------|----------------|
|-------------------------8--8-|-------------------------|----------------|

|------------------------|--------------------------------|-------------------------|
|------------------------|--------------------------------|-------------------------|
|---7*----7*---7*---7*---|--7*---7*---7*---7*------5------|-------------------------|
|------------------------|----------------------------7~--|----------5--------------|
|------------------------|--------------------------------|----5--7-----5-----5-----|
|------------------------|--------------------------------|----------------8-----8--|


****************************
| b        1/4 bend
| B        1/2 bend
| *-       pinch harmonic
| r        release
| 7FB-r5   7 full bend, release, pull-off to 5
| /        slide up
| \        slide down
| h        hammer-on
| x        dead note
| :        reprise
| ~        vibrato
****************************
Suggest correction
comments
print report bad tab
63 comments total. Showing first comments.
0 reply
ChubbyLove 40 Apr 05, 2005 12:00 AM

Great Tab

+11 reply
ibanez87 301 Aug 08, 2005 12:00 AM

where's the pinch harmonics?

0 reply
FlyingBeerman 10 Oct 08, 2005 10:36 AM

Biggest problem I can see is that you're listing full bends every time there should be a 2-step bend. Full bends wouldn't be in key.

guest
You may want to rate the tab now too:
select rating
Wanna post a correction for this tab? Suggest correction